» » »

Hikaru Utada - Deep River Tabs

Artists:  A B C D E F G H I J K L M N O P Q R S T U V W X Y Z # 

Deep River Tabs

(ver. 1) Click to play this song!
Hikaru Utada
 Rating:
4/5 (4 votes)

 Deep River lessons Tabs too difficult? Try these video lessons and learn fast
 
                first tab. listened to it and tabbed it out 
with a little help from the verse intro/verse.

Intro (the melody)
E||---3-----1-------1-3--|---3-----1-------1-3--|---1-------1-----------|
B||-----1-4---4-1-4------|-----1-4---4-1-4------|-----1-4-1---1-4-1-4---|
G||----------------------|----------------------|-----------------------|
D||----------------------|----------------------|-----------------------|
A||----------------------|----------------------|-----------------------|
E||----------------------|----------------------|-----------------------|

E||-----------------1-3--|---3-----1-------1-3--|---3-----1-------1-3---|
B||---4-1-4-1-4-1-4------|-----1-4---4-1-4------|-----1-4---4-1-4-------|
G||----------------------|----------------------|-----------------------|
D||----------------------|----------------------|-----------------------|
A||----------------------|----------------------|-----------------------|
E||----------------------|----------------------|-----------------------|

E||---1-------1----------|-----------------1-3--|
B||-----1-4-1---1-4-1-4--|---4-1-4-1-4-1-4------|
G||----------------------|----------------------|
D||----------------------|----------------------|
A||----------------------|----------------------|
E||----------------------|----------------------|

didn't write this part. credits go to 
verse (you can have another guitar play this part while doing the intro)
E||----------------------|----------------------|-----------------------|
B||----------------------|----------------------|-----------------------|
G||-----------------5----|-----------------5----|-----------------------|
D||------------8---------|------------8---------|------------8----10----|
A||-------6--------------|-------6--------------|-------8---------------|
E||--4-------------------|--4-------------------|--6--------------------|

E||-----------------------|----------------|----------------------|
B||-----------------------|----------------|----------------------|
G||-----------------------|----------------|-------1--------------|
D||------------8----10----|----------------|--5-------------------|
A||-------8---------------|-----------3----|-----------------3----|
E||--6--------------------|--4-3-1---------|------------1---------|

E||----------------------|-------1--------------|-----------------1----|
B||----------------------|--4---------4---------|------------4---------|
G||-------1---------3----|-----------------3----|-------3--------------|
D||--5---------1---------|----------------------|--1-------------------|
A||----------------------|----------------------|----------------------|
E||----------------------|----------------------|----------------------|

E||------------||
B||--4---------||
G||-------3----||
D||------------||
A||------------||
E||------------||

E||----------------------|----------------------|-----------------------|
B||----------------------|----------------------|-----------------------|
G||-----------------5----|-----------------5----|-----------------------|
D||------------8---------|------------8---------|------------8----10----|
A||-------6--------------|-------6--------------|-------8---------------|
E||--4-------------------|--4-------------------|--6--------------------|

E||-----------------------|----------------|----------------------|
B||-----------------------|----------------|----------------------|
G||-----------------------|----------------|-------1--------------|
D||------------8----10----|----------------|--5-------------------|
A||-------8---------------|-----------3----|-----------------3----|
E||--6--------------------|--4-3-1---------|------------1---------|

E||----------------------|-------1--------------|----------------------|
B||----------------------|--4---------4---------|-----------------1----|
G||-------1---------3----|-----------------3----|-------0----3---------|
D||--5---------1---------|----------------------|--0-------------------|
A||----------------------|----------------------|----------------------|
E||----------------------|----------------------|----------------------|


chorus 
E||-------------1--------|----------------------|-----------------------|
B||----------4----4------|-------------1--------|-------------1-1-------|
G||-------3----------3---|-------0--3-----3-----|----------3-------3----|
D||----1-----------------|----0--------------0--|-------3-------------3-|
A||----------------------|----------------------|---1-------------------|
E||----------------------|----------------------|-----------------------|

E||-----------------------|-----------------------|----------------------|
B||-----------------------|-----------------------|----------------------|
G||---------------5-------|----------0---1--0--1--|-----------3----------|
D||----------8------------|-----------------------|---------5------------|
A||------6----------------|------3----------------|------5---------------|
E||--4--------------------|--1--------------------|---3------------------|


E||----------------------|-----------------3----||
B||----------------------|----------------------||
G||--------------5-----5-|------------0---------||
D||-----------8-----8----|---------0------------||
A||------6---------------|------1---------------||
E||--4-------------------|---3------------------||

repeat intro and verse
ending is intro
            
Submit corrections


        Deep River lessons Hard to play? Try these video lessons and learn fast Deep River lessons
        
↑ Back to top | Tablatures and chords for acoustic guitar and electric guitar, ukulele, drums are parodies/interpretations of the original songs. You may use it for private study, scholarship, research or language learning purposes only