Home » H » High On Fire »

High On Fire - Silver Back Tabs

Artists:  A B C D E F G H I J K L M N O P Q R S T U V W X Y Z # 

Silver Back Tabs

(ver. 1) Click to play this song!
High On Fire
Intro]
 
D|---------------------------------------------------|
A|---------------------------------------------------|
F|---------------------------------------------------|
C|--9-10-9---9-10-9--4-7-10- 9-10-9--9-10-9--4-7-13--|
G|--9-10-9---9-10-9--4-7-10- 9-10-9--9-10-9--4-7-13--|
C|--9-10-9---9-10-9--4-7-10- 9-10-9--9-10-9--4-7-13--|
 


[Verse]
 
D|------------------------------------------------|
A|------------------------------------------------|
F|------------------------------------------------|
C|-9-10--9-10-9 10 -6--1---9-10--9-10--7-10-9-13--|
G|-9-10--9-10-9 10 -6--1---9-10--9-10--7-10-9-13--|
C|-9-10--9-10-9 10 -6--1---9-10--9-10--7-10-9-13--|

D|-------------------------------------------------------------------------------------------|
A|-------------------------------------------------------------------------------------------|
F|-------------------------------------------------------------------------------------------|
C|-9-10--9-10--9-10--6-1---9-10--9-10-13-10-10-7-------9-10--7-6-7-6-3-2--9-10-7-6-7-10-3-2--|
G|-9-10--9-10--9-10--6-1---9-10--9-10-13-10-10-7-------9-10--7-6-7-6-3-2--9-10-7-6-7-10-3-2--|
C|-9-10--9-10--9-10--6-1---9-10--9-10-13-10-10-7-------9-10--7-6-7-6-3-2--9-10-7-6-7-10-3-2--|

 
[Chorus]
 
D|---------------------------------------------------------------------------|
A|---------------------------------------------------------------------------|
F|---------------------------------------------------------------------------|
C|-15-14--14-14-15-12-12 12 -15-9-12-15---15-14-14-14-15-12-12-12-13-9-12-6--|
G|-15-14--14-14-15-12-12 12 -15-9-12-15---15-14-14-14-15-12-12-12-13-9-12-6--|
C|-15-14--14-14-15-12-12 12 -15-9-12-15---15-14-14-14-15-12-12-12-13-9-12-6--|

D|-----------------------------------------------------------------------|
A|-----------------------------------------------------------------------|
F|-----------------------------------------------------------------------|
C|-8-7-7-7-8-5-5-5-8-2-5-8-8-7-7-7-8-5-5-5-8-2-5-1---------------2-5-13--|
G|-8-7-7-7-8-5-5-5-8-2-5-8-8-7-7-7-8-5-5-5-8-2-5-1---------------2-5-13--|
C|-8-7-7-7-8-5-5-5-8-2-5-8-8-7-7-7-8-5-5-5-8-2-5-1---------------2-5-13--|

 
[Outro]
 
D|---------------------------------------------|
A|---------------------------------------------|
F|---------------------------------------------|
C|-13-10-10-10-7-7-13-10-10-10-7-7-10-7-10-13--|
G|-13-10-10-10-7-7-13-10-10-10-7-7-10-7-10-13--|
C|-13-10-10-10-7-7-13-10-10-10-7-7-10-7-10-13--|             
Submit corrections

↑ Back to top | Tablatures and chords for acoustic guitar and electric guitar, ukulele, drums are parodies/interpretations of the original songs. You may use it for private study, scholarship, research or language learning purposes only