Home » H » High On Fire »

High On Fire - Serums Of Liao Tabs

Artists:  A B C D E F G H I J K L M N O P Q R S T U V W X Y Z # 

Serums Of Liao Tabs

(ver. 1) Click to play this song!
High On Fire
|---------------------------------------------------------------------------|
|---------------------------------------------------------------------------|
|---------------------------------------------------------------------------|
|---------------------------------------------------------------------------|
|-3-3-3-3-3-3-6-6-6-6-6-6-3-3-3-3-3-3-9-9-9-8-8-8-9-9-9-6-6-6-6-6-6-6-6-6-6-|
|-1-1-1-1-1-1-4-4-4-4-4-4-1-1-1-1-1-1-7-7-7-6-6-6-7-7-7-4-4-4-4-4-4-4-4-4-4-| 

|---------------------------------------------------------------------------|
|---------------------------------------------------------------------------|
|---------------------------------------------------------------------------|
|-----------------0-0-2-2-3-------------------------------------------------|
|-6-6-2-2-2-2-2-2-0-0-2-2-3-------------------------------------------------|
|-4-4-0-0-0-0-0-0-----------------------------------------------------------|

|---------------------------------------------------------------------------|
|---------------------------------------------------------------------------|
|---------------------------------------------------------------------------|
|---------------------------------------------------------------------------|
|-3-3-3-3-3-3-6-6-6-6-6-6-3-3-3-3-3-3-9-9-9-8-8-8-9-9-9-6-6-6-6-6-6-6-6-6-6-|
|-1-1-1-1-1-1-4-4-4-4-4-4-1-1-1-1-1-1-7-7-7-6-6-6-7-7-7-4-4-4-4-4-4-4-4-4-4-|

|---------------------------------------------------------------------------|
|---------------------------------------------------------------------------|
|---------------------------------------------------------------------------|
|-----------------7-7-9-9-1010----------------------------------------------|
|-6-6-2-2-2-2-2-2-5-5-7-7-8-8-----------------------------------------------|
|-4-4-0-0-0-0-0-0-----------------------------------------------------------|Riff 1


|---------------------------------------------------------------------------|
|---------------------------------------------------------------------------|
|---------------------------------------------------------------------------|
|---------------------------------------------------------------------------|
|-2-12-12-12-12-12-2-12-12-12-12-12-2-12-12-12-12-12-2-12-12-12-12-12-------|
|-0-10-10-10-10-10-0-10-10-10-10-10-0-10-10-10-10-10-0-10-10-10-10-10-------|

|---------------------------------------------------------------------------|
|---------------------------------------------------------------------------|
|---------------------------------------------------------------------------|
|---------------------------------------------------------------------------|
|-2-2-2-2-2-2-7-7-7-7-7-7-2-2-2-2-2-2-5-5-7-8-7-----------------------------|
|-0-0-0-0-0-0-0-0-0-0-0-0-0-0-0-0-0-0-0-0-0-0-0-----------------------------|Riff 2

|---------------------------------------------------------------------------|
|---------------------------------------------------------------------------|
|---------------------------------------------------------------------------|
|---------------------------------------------------------------------------|
|-15-15-15-15-15-15-15-15-15-15-15-15-15-15-15-15-15-15-15-15-15-15-10-10---|
|-10-10-10-10-10-10-10-10-10-10-10-10-10-10-10-10-10-10-10-10-10-10-10-10---|

|---------------------------------------------------------------------------|
|---------------------------------------------------------------------------|
|---------------------------------------------------------------------------|
|---------------------------------------------------------------------------|
|-12-12-14-14-14-14-14-14-14-14-14-14-14-14-14-14-14-14-14-14-14-14-14-14---|
|-10-10-12-12-12-12-12-12-12-12-12-12-12-12-12-12-12-12-12-12-12-12-12-12---|

|---------------------------------------------------------------------------|
|---------------------------------------------------------------------------|
|---------------------------------------------------------------------------|
|---------------------------------------------------------------------------|
|-14-14---------------------------------------------------------------------|
|-12-12---------------------------------------------------------------------|Riff 3

Riff 2 , Riff 3 , Riff 1 

|-----------------------------------------------------------------------------------|
|-----------------------------------------------------------------------------------|
|-----------------------------------------------------------------------------------|
|-----------------------------------------------------------------------------------|
|-19-19-19-19-19-19-12-12-12-12-12-12-14-14-14-14-14-14-14-14-14-14-14-14-----------|
|-15-15-15-15-15-15-13-13-13-13-13-13-12-12-12-12-12-12-12-12-12-12-12-12-----------|

|-----------------------------------------------------------------------------------|
|-----------------------------------------------------------------------------------|
|-----------------------------------------------------------------------------------|
|-----------------------------------------------------------------------------------|
|-16-16-16-16-16-16-12-12-12-12-12-12-14-14-14-14-14-14-14-14-14-14-14-14-----------|
|-13-13-13-13-13-13-10-10-10-10-10-10-12-12-12-12-12-12-12-12-12-12-12-12-----------|

|-----------------------------------------------------------------------------------|
|-----------------------------------------------------------------------------------|
|-----------------------------------------------------------------------------------|
|-----------------------------------------------------------------------------------|
|-19-19-19-19-19-19-12-12-12-12-12-12-14-14-14-14-14-14-14-14-14-14-14-14-----------|
|-15-15-15-15-15-15-13-13-13-13-13-13-12-12-12-12-12-12-12-12-12-12-12-12-----------|

|-----------------------------------------------------------------------------------|
|-----------------------------------------------------------------------------------|
|-----------------------------------------------------------------------------------|
|-----------------------------------------------------------------------------------|
|-16-16-16-16-16-16-12-12-12-12-12-12-4 hold-3 hold---------------------------------|
|-13-13-13-13-13-13-10-10-10-10-10-10-3 hold-1 hold---------------------------------|

|--------------------------------------------------------------------------------------|
|--------------------------------------------------------------------------------------|
|--------------------------------------------------------------------------------------|
|---0-5-------------------------------------------5--5---------------------------------|
|-4-0-3-------------------------------------------3--3---------------------------------|
|-2-----2-2p-2p-2p-2p-2-2p-2p-2p-2p-2-2p-2p-2p-2p--2--2-2p-2p-2p-2p-2-2p-2p-2p-2p-2----|


|-----------------------------------------------------------------------------------------------|
|-----------------------------------------------------------------------------------------------|
|-----------------------------------------------------------------------------------------------|
|-------------3-5-6-------------------------------------------5--5------------------------------|
|-------------1-3-4-------------------------------------------3--3------------------------------|
|-2p-2p-2p-2p-------2-2p-2p-2p-2p-2-2p-2p-2p-2p-2-2p-2p-2p-2p--2--2-2p-2p-2p-2p-2-2p-2p-2p-2p-2-|

|----------------------------------------------------------------------------------------------|
|----------------------------------------------------------------------------------------------|
|----------------------------------------------------------------------------------------------|
|-------------3-6------------------------------------------9--9--------------------------------|
|-------------1-4------------------------------------------7--7--------------------------------|
|-2p-2p-2p-2p-----6p-6p-6p-6p-6-6p-6p-6p-6p-6-6p-6p-6p-6p---6--6-6p-6p-6p-6p-6-6p-6p-6p-6p-----|

|-----------------------------------------------------------------------------------------------|
|-----------------------------------------------------------------------------------------------|
|-----------------------------------------------------------------------------------------------|
|---------------3-5-6-------------------------------------------9--9----------------------------|
|---------------1-3-4-------------------------------------------7--7----------------------------|
|-6-6p-6p-6p-6p-------6-6p-6p-6p-6p-6-6p-6p-6p-6p-6-6p-6p-6p-6p--6--6-6p-6p-6p-6p-6-6p-6p-6p-6p-|

|-----------------------------------------------------------------------------------------|
|-----------------------------------------------------------------------------------------|
|-----------------------------------------------------------------------------------------|
|-3-5-6-----5-----------------------------------------------------------------------------|
|-1-3-4-4-0-3-----------------------------------------------------------------------------|
|-------2-0-------------------------------------------------------------------------------|            
Submit corrections

↑ Back to top | Tablatures and chords for acoustic guitar and electric guitar, ukulele, drums are parodies/interpretations of the original songs. You may use it for private study, scholarship, research or language learning purposes only