» » »

High On Fire - Madness Of An Architect Tabs

Artists:  A B C D E F G H I J K L M N O P Q R S T U V W X Y Z # 

Madness Of An Architect Tabs

(ver. 1) Click to play this song!
High On Fire
 Rating:
2.7/5 (23 votes)

 Madness Of An Architect  lessons Tabs too difficult? Try these video lessons and learn fast
 
                Tuning:

e|------------------------------------------------------------------------------------|
B|------------------------------------------------------------------------------------|
G|------------------------------------------------------------------------------------|
D|------------------------------------------------------------------------------------|
A|--3/11/10---3/11/10--13/12--16---------3/11/10-------3/11/10--13/12--4--------------|
E|--1/9/8t(9)-1/9/8----11/10--14t(15)----1/9/8t(9)-----1/9/8----11/10--2t(3)----------| x5

e|---------------------------------------------------------------------------|
B|---------------------------------------------------------------------------|
G|---------------------------------------------------------------------------|
D|---------------------------------------------------------------------------|
A|--2/14-14-14-2/14-2/14-2/14-14-14-14-14-14-4/3-3---------------------------|
E|--0/12-12-12-0/12-0/12-0/12-12-12-12-12-12-2/1-0h1-------------------------|

e|---------------------------------------------------------------------------|
B|---------------------------------------------------------------------------|
G|---------------------------------------------------------------------------|
D|---------------------------------------------------------------------------|
A|--2/14-14-14-14-14-14-14-14-14-14-14-14-14-14-14/12-12/10-10/8-8-----------|
E|--0/12-12-0--12-0--12-0--12-0--12-12-12-12-12-12/10-10/8--8/6--0h6---------|

e|---------------------------------------------------------------------------|
B|---------------------------------------------------------------------------|
G|---------------------------------------------------------------------------|
D|---------------------------------------------------------------------------|
A|--2/14-14-14-14-14-14-14-14-14-14-14-14-14-14-14-4/3-3---------------------|
E|--0/12-12-12-0--12-0--12-0--12-0--12-12-12-12-12-2/1-0h1-------------------|

e|---------------------------------------------------------------------------|
B|---------------------------------------------------------------------------|
G|---------------------------------------------------------------------------|
D|---------------------------------------------------------------------------|
A|--2/14-14-14-14-14-14-14-14-14-14-14-14-14-14-14/12-12/10-10/8-8-----------|
E|--0/12-12-0--12-0--12-0--12-0--12-12-12-12-12-12/10-10/8--8/6--0h6---------|

e|----------------------------------------------------------------------------------------|
B|----------------------------------------------------------------------------------------|
G|----------------------------------------------------------------------------------------|
D|--------------14b-14-12-14-12----12-----------------------------------------------------|
A|--------12h14-----------------14----14-12-----------12p0------------5-5-5-5-4-3-2-------|
E|--12h14-----------------------------------1/12-12p0------10-10h12-0-5-5-5-5-4-3-0-------|

e|---------------------------------------------------------------------------|
B|---------------------------------------------------------------------------|
G|---------------------------------------------------------------------------|
D|---------------------------------------------------------------------------|
A|--2/14-14-14-2/14-2/14-2/14-14-14-14-14-14-4/3-3---------------------------|
E|--0/12-12-12-0/12-0/12-0/12-12-12-12-12-12-2/1-0h1-------------------------|

e|---------------------------------------------------------------------------|
B|---------------------------------------------------------------------------|
G|---------------------------------------------------------------------------|
D|---------------------------------------------------------------------------|
A|--2/14-14-14-14-14-14-14-14-14-14-14-14-14-14-14/12-12/10-10/8-8-----------|
E|--0/12-12-0--12-0--12-0--12-0--12-12-12-12-12-12/10-10/8--8/6--0h6---------|

e|---------------------------------------------------------------------------|
B|---------------------------------------------------------------------------|
G|---------------------------------------------------------------------------|
D|---------------------------------------------------------------------------|
A|--2/14-14-14-14-14-14-14-14-14-14-14-14-14-14-14-4/3-3---------------------|
E|--0/12-12-12-0--12-0--12-0--12-0--12-12-12-12-12-2/1-0h1-------------------|

e|---------------------------------------------------------------------------|
B|---------------------------------------------------------------------------|
G|---------------------------------------------------------------------------|
D|---------------------------------------------------------------------------|
A|--2/14-14-14-14-14-14-14-14-14-14-14-14-14-14-14/12-12/10-10/8-8-----------|
E|--0/12-12-0--12-0--12-0--12-0--12-12-12-12-12-12/10-10/8--8/6--0h6---------|

e|---------------------------------------------------------------------------|
B|---------------------------------------------------------------------------|
G|---------------------------------------------------------------------------|
D|---------------------------------------------------------------------------|
A|--9---9-12-14-12-9-9---8---8-----------------------------------------------|
E|--0h7-7-10-12-10-7-0h7-0h6-6t(7)-------------------------------------------|

e|---------------------------------------------------------------------------|
B|---------------------------------------------------------------------------|
G|---------------------------------------------------------------------------|
D|---------------------------------------------------------------------------|
A|--2/9-9---9-12-14-12-9-9---8---8-------------------------------------------|
E|--0/7-0h7-7-10-12-10-7-0h7-0h6-6t(7)---------------------------------------| 

e|---------------------------------------------------------------------------|
B|---------------------------------------------------------------------------|
G|---------------------------------------------------------------------------|
D|---------------------------------------------------------------------------|
A|--2/9-9---9-12-14-12-9-9---8---8-------------------------------------------|
E|--0/7-0h7-7-10-12-10-7-0h7-0h6-6t(7)---------------------------------------|

e|---------------------------------------------------------------------------|
B|---------------------------------------------------------------------------|
G|---------------------------------------------------------------------------|
D|---------------------------------------------------------------------------|
A|--2/9-9---9-12-14-12-9-9---8---8-------------------------------------------|
E|--0/7-0h7-7-10-12-10-7-0h7-0h6-6t(7)---------------------------------------|

e|---------------------------------------------------------------------------|
B|---------------------------------------------------------------------------|
G|---------------------------------------------------------------------------|
D|---------------------------------------------------------------------------|
A|--2/14-14-14-2/14-2/14-2/14-14-14-14-14-14-4/3-3---------------------------|
E|--0/12-12-12-0/12-0/12-0/12-12-12-12-12-12-2/1-0h1-------------------------|

e|---------------------------------------------------------------------------|
B|---------------------------------------------------------------------------|
G|---------------------------------------------------------------------------|
D|---------------------------------------------------------------------------|
A|--2/14-14-14-14-14-14-14-14-14-14-14-14-14-14-14/12-12/10-10/8-8-----------|
E|--0/12-12-0--12-0--12-0--12-0--12-12-12-12-12-12/10-10/8--8/6--0h6---------|

e|---------------------------------------------------------------------------|
B|---------------------------------------------------------------------------|
G|---------------------------------------------------------------------------|
D|---------------------------------------------------------------------------|
A|--2/14-14-14-14-14-14-14-14-14-14-14-14-14-14-14-4/3-3---------------------|
E|--0/12-12-12-0--12-0--12-0--12-0--12-12-12-12-12-2/1-0h1-------------------|

e|---------------------------------------------------------------------------|
B|---------------------------------------------------------------------------|
G|---------------------------------------------------------------------------|
D|---------------------------------------------------------------------------|
A|--2/14-14-14-14-14-14-14-14-14-14-14-14-14-14-14/12-12/10-10/8-8-----------|
E|--0/12-12-0--12-0--12-0--12-0--12-12-12-12-12-12/10-10/8--8/6--0h6---------|

e|----------------------------------------------------------------------------------------|
B|----------------------------------------------------------------------------------------|
G|----------------------------------------------------------------------------------------|
D|--------------14b-14-12-14-12----12-----------------------------------------------------|
A|--------12h14-----------------14----14-12-----------12p0------------5-5-5-5-4-3-2-------|
E|--12h14-----------------------------------1/12-12p0------10-10h12-0-5-5-5-5-4-3-0-------|

e|---------------------------------------------------------------------------|
B|---------------------------------------------------------------------------|
G|---------------------------------------------------------------------------|
D|---------------------------------------------------------------------------|
A|--2/14-14-14-2/14-2/14-2/14-14-14-14-14-14-4/3-3---------------------------|
E|--0/12-12-12-0/12-0/12-0/12-12-12-12-12-12-2/1-0h1-------------------------|

e|---------------------------------------------------------------------------|
B|---------------------------------------------------------------------------|
G|---------------------------------------------------------------------------|
D|---------------------------------------------------------------------------|
A|--2/14-14-14-14-14-14-14-14-14-14-14-14-14-14-14/12-12/10-10/8-8-----------|
E|--0/12-12-0--12-0--12-0--12-0--12-12-12-12-12-12/10-10/8--8/6--0h6---------|

e|---------------------------------------------------------------------------|
B|---------------------------------------------------------------------------|
G|---------------------------------------------------------------------------|
D|---------------------------------------------------------------------------|
A|--2/14-14-14-14-14-14-14-14-14-14-14-14-14-14-14-4/3-3---------------------|
E|--0/12-12-12-0--12-0--12-0--12-0--12-12-12-12-12-2/1-0h1-------------------|

e|---------------------------------------------------------------------------|
B|---------------------------------------------------------------------------|
G|---------------------------------------------------------------------------|
D|---------------------------------------------------------------------------|
A|--2/14-14-14-14-14-14-14-14-14-14-14-14-14-14-14/12-12/10-10/8-8--11/10v---|
E|--0/12-12-0--12-0--12-0--12-0--12-12-12-12-12-12/10-10/8--8/6--0---9/8v----|

e|-----------------------------------------------------------------------------------------|
B|-----------------------------------------------------------------------------------------|
G|-----------------------------------------------------------------------------------------|
D|-----------------------------------------------------------------------------------------|
A|--3/11/10-------3/11/10--13/12--16---------3/11/10-------3/11/10--13/12--4---------------|
E|--1/9/8t(9)-----1/9/8----11/10--145(15)----1/9/8t(9)-----1/9/8----11/10--2t(3)-----------| 

e|-----------------------------------------------------------------------------------------|
B|-----------------------------------------------------------------------------------------|
G|-----------------------------------------------------------------------------------------|
D|-----------------------------------------------------------------------------------------|
A|--3/11/10-------3/11/10--13/12--16---------3/11/10-------3/11/10--13/12--4---------------|
E|--1/9/8t(9)-----1/9/8----11/10--145(15)----1/9/8t(9)-----1/9/8----11/10--2t(3)-----------|

  SOLO

e|---------------------------------------------------------------------------|
B|---------------------------------------------------------------------------|
G|---------------------------------------------------------------------------|
D|---------------------------------------------------------------------------|
A|--11/10--------------------------------------------------------------------|
E|--9/8----------------------------------------------------------------------|            
Submit corrections


        Madness Of An Architect  lessons Hard to play? Try these video lessons and learn fast Madness Of An Architect  lessons
        
↑ Back to top | Tablatures and chords for acoustic guitar and electric guitar, ukulele, drums are parodies/interpretations of the original songs. You may use it for private study, scholarship, research or language learning purposes only