» » »

High On Fire - Fury Whip Tabs

Artists:  A B C D E F G H I J K L M N O P Q R S T U V W X Y Z # 

Fury Whip Tabs

(ver. 1) Click to play this song!
High On Fire
 Rating:
1.8/5 (30 votes)

 Fury Whip  lessons Tabs too difficult? Try these video lessons and learn fast
 
                Intro:               v = vibrato          (HOLD) = hold note

----------------------------------------------------|
----------------------------------------------------|                       (Riff 1)
----------------------------------------------------|
-9v------9---------------9v----------------------9--|v
-7v------6-------6-------7v------9-------8-------7--|v
-0--0-0-----0-0--9--0-0--0--0-0--7--0-0--6--0-0--0--|    Do this a few times.

  --------------------------------------------------------------------------------|
  --------------------------------------------------------------------------------|
  ------12v-------11v-------------15v-------11v---------------12v-------10v-------|
  ------------------------7v--------------------------9v--------------------------|
  ------10v-------9v------9v------13v-------9v--------7v------10v-------9v--------|
  -0-0------0-0------0-0--0--0-0-------0-0-------0-0--0--0-0-------0-0------------|

  --------------------------------------------------------------------------------|
  --------------------------------------------------------------------------------|
  -------15v-------11v------16v-------15v-------19v-------16v-------15v-------11v-|
  --------------------------------------------------------------------------------|
  -------13v-------9v-------14v-------13v-------17v-------14v-------13v-------9v--|
  --0-0-------0-0------0-0-------0-0-------0-0-------0-0-------0-0-------0-0------|


              Matt Does some lead stuff I haven't figured out but you can just play
              Riff 1 along with the bass.

              ---------------------------------------------------------------------------|
              ---------------------------------------------------------------------------|
              ---------------------------------------------------------------------------|
              ---------------------------------------------------------------------------|
              -2-------5-------5-------2-------8-------5-------2-------5-------5-------2-|
              -0--0-0--3--0-0--2--0-0--0--0-0--6--0-0--2--0-0--0--0-0--3--0-0--2--0-0--0-|

              ----------------|
              ----------------|
              ----------------|
              ----------------|   (Riff 2)
              ------8-------5-|
              -0-0--6--0-0--2-|
                                                                         (Riff 3)


  ---------------------------------------------------------------------------------------|
  ---------------------------------------------------------------------------------------|
  ---------------------------------------------------------------------------------------|
  ---------------------------------------------------------------------------------------|
---14----14----14----14----14--14/17-17/19----14----14----14----14----14----12-12/14-----|
  -0h12--0h12 --012--0h12----12--12/15-15/17--0h12--0h12--0h12--0h12----12--0h10-10/12---|

  -------------------------------------------|
  -------------------------------------------|
  -------------------------------------------|
  -------------------------------------------| Repeat
  ---14----14----14----14----14--14/17-17/19-|
  -0h12--0h12--0h12--0h12----12--12/15-15/17-|

             Matt does a pick slide at the end of the last time played
                                                                         (Riff 4)


 --------------------------------------------------------------------------------------|
 --------------------------------------------------------------------------------------|
 --------------------------------------------------------------------------------------|
 --------------------------------------------------------------------------------------|
 -2------5------2------8------2------14-------10-----10-----10-----10-----9------5-----|
-0-0000-3-0000-0-0000-6-0000-0-0000-12--0000-7-0000-6-0000-8-0000-7-0000-6-0000-3-0000-|

              -----------------------|
              -----------------------|
              - ---------------------|
              -----------------------|  (x2)   Then another pick slide
              8------5------8------2-|
              6-0000-3-0000-6-0000-0-|
                                                                         (Riff 5)
  ---------------------------------------------------------------------------------------|
  ---------------------------------------------------------------------------------------|
  ---------------------------------------------------------------------------------------|
-----------------------------------------------------------------------------------------|
  -2--5-(HOLD)5/8-(HOLD)8-----12-(HOLD)12/11-(HOLD)11/8-(HOLD)8-----12/14-11/12-9/11-8/9-|
  -0--3h4p3h4p3/6h7p6h7p6--0--10h11p10h11/9h10p11h10-/6h7p6h7p6--0--10/12-9/10--7/9--6/7-|

              ---------------                           ---------------------------------|
              ---------------                           ---------------------------------|
              ---------------                           ---------------------------------|
              ---------------                           ---------------------------------|
              -8/9-8v--5--17v   2nd time does the       -12/14-12/14-10/11 10/11--5--17--|v
              -6/7-6v--3--15v   same first part but     -10/12-10/12-8 / 9-8 / 9--3--15--|v
                                end with this instead

             **Plays Riff 3 again**

              ----------------------------------------------------|    FURY WHIP! FURY WHIP!
              ----------------------------------------------------|
              ----------------------------------------------------|         (Riff 6)
              ----------------------------------------------------|
              -2-------5-------5-------2-------8-------5-------2--|
              -0--0-0--3--0-0--2--0-0--0--0-0--6--0-0--2--0-0--0--|

              I Haven't figured the solo out but if you follow the bass and drums you can play
              Riff 5 twice then Riff 3 for the rest of the song until you reach this.

                       ---------------------|
                       ---------------------|   little outro
                       ---------------------|
                       ---------------------|
                       -14-12-14-15---------|
                       -12-10-12-13---------|        END            
Submit corrections


        Fury Whip  lessons Hard to play? Try these video lessons and learn fast Fury Whip  lessons
        
↑ Back to top | Tablatures and chords for acoustic guitar and electric guitar, ukulele, drums are parodies/interpretations of the original songs. You may use it for private study, scholarship, research or language learning purposes only