Home » H » High And Mighty Color »

High And Mighty Color - Pride Tabs

Artists:  A B C D E F G H I J K L M N O P Q R S T U V W X Y Z # 

Pride Tabs

(ver. 1) Click to play this song!
High And Mighty Color
|----------|
|----------|
|----------|
|----------|
|-------3--|
|----------|


|---------------|---------------6-|---8--8-6--10-|-(10)-8--11-10----|
|-1--4---4-6-8--|-8-6-4---4-6-8---|--------------|------------------|
|------5--------|-------5---------|--------------|------------------|
|---------------|-----------------|--------------|------------------|
|---------------|-----------------|--------------|------------------|
|---------------|-----------------|--------------|------------------|


|----6---8-------|-10-------8-------|-----6-8----6-8-|-10-8-10-11-(11)-----|
|-8----8---8-6-8-|----8-6-8---8-6-8-|-6-8------8-----|---------------------|
|----------------|------------------|----------------|---------------------|
|----------------|------------------|----------------|---------------------|
|----------------|------------------|----------------|---------------------|
|----------------|------------------|----------------|------------------8--|


|-------------6-11-|-15----------16----------16----------16----------|
|-------6-4-6------|----16----16----16----16----16----16----16----16-|
|-----8------------|-------15----------15----------15----------15----|
|--8---------------|-------------------------------------------------|
|------------------|-------------------------------------------------|
|------------------|-------------------------------------------------|


|-------------------------------------------------|-18--------|-(18)---------*|
|-18----------18----------18----------18----------|-----------|--------------*|
|----19----19----19----19----19----19----19----19-|-----------|--------------*|
|-------20----------20----------20----------20----|-----------|--------------*|
|-------------------------------------------------|-----------|--------------*|
|-------------------------------------------------|-----------|--------------*|
            
Submit corrections

↑ Back to top | Tablatures and chords for acoustic guitar and electric guitar, ukulele, drums are parodies/interpretations of the original songs. You may use it for private study, scholarship, research or language learning purposes only