Home » H » Hey »

Hey - A Ty Tabs

Artists:  A B C D E F G H I J K L M N O P Q R S T U V W X Y Z # 

A Ty Tabs

(ver. 1) Click to play this song!
Hey
INTERLUDE

 4/4
  Gtr I
  Q E E E E E   E   E E E E E E E  E   E E E E E E E E   E E E E E E E   E
|-----------------|---0-0-0---0-0--0-|---0-0-0---0-0-0-|---0-0-0-0-0-0---0-|
|-8---8-8-8---/10-|---8-8-8---8-8-/7-|---5-5-5---5-5-5-|---5-5-5-7-7-8-/10-|
|-0---0-0-0-----0-|---0-0-0---0-0--0-|---0-0-0---0-0-0-|---0-0-0-0-0-0---0-|
|-----------------|------------------|-----------------|-------------------|
|-----------------|------------------|-----------------|-------------------|
|-----------------|------------------|-----------------|-------------------|


  E E E E E E E   E   E E E E E E E  E   E E E E E E E E   E E E E E E Q
|-------------------|---0-0-0---0-0--0-|---0-0-0---0-0-0-|---0-0-0-0-0-0--|
|---8-8-8---8-8-/10-|---8-8-8---8-8-/7-|---5-5-5---5-5-5-|---5-5-5-7-7-8--|
|---0-0-0---0-0---0-|---0-0-0---0-0--0-|---0-0-0---0-0-0-|---0-0-0-0-0-0--|
|-------------------|------------------|-----------------|----------------|
|-------------------|------------------|-----------------|----------------|
|-------------------|------------------|-----------------|----------------|            
Submit corrections

↑ Back to top | Tablatures and chords for acoustic guitar and electric guitar, ukulele, drums are parodies/interpretations of the original songs. You may use it for private study, scholarship, research or language learning purposes only