» » »

Heroes Del Silencio - El Estanque Tabs

Artists:  A B C D E F G H I J K L M N O P Q R S T U V W X Y Z # 

El Estanque Tabs

(ver. 2) Click to play this song!
Heroes Del Silencio
 Rating:
4.2/5 (5 votes)

 El Estanque lessons Tabs too difficult? Try these video lessons and learn fast
 
                xxx  x      xxx  xxx  xxx  xxx  x  x  xxx  x x  xxx
x    x      x    x     x   x x  xx x  x x  x x  x
xxx  x      xx    x    x   xxx  x xx  x x  x x  xxx
x    x      x      x   x   x x  x  x  xxx  x x  x
xxx  xxx    xxx  xxx   x   x x  x  x    x  xxx  xxx

Sec0  seccion number
    here goes the lyrics aligned with the time
    here goes the chords aligned with the time
  0:00| 0:00| 0:00| 0:00| 0:00|  here goes the time (seconds)
E------------------------------|   E string
A------------------------------|   A string
D------------------------------|   D string
G------------------------------|   G string
B------------------------------|   B string
E------------------------------|   E string

 =   hold the note shown before the symbol
(0)  play a harmonic with the note inside the paranthesis
 /   slide from the note before to the note after the symbol
 p   hammer on to the note after the symbol
 h   hammer off from the note before to the note after
 0^  bend the string holding the note before the symbol
Sec0 Section
V.0  version

Sec1
                            Dm                      Am
  0:01| 0:02| 0:03| 0:04| 0:05| 0:06| 0:07| 0:08| 0:09| 0:10| 0:11|
E------------------------------------------------------------------|
A------------------------------------------------------------------|
D------------------------------------------------------------------|
G------------------------------------------------------------------|
B------------------------------------------------------------------|
E------------------------------------------------------------------|

Sec2
          C                  Dm                   Dm
  0:12| 0:13| 0:14| 0:15| 0:16| 0:17| 0:18| 0:19| 0:20| 0:21| 0:22|
E-------------------------------------------------------------------|
A-------------------------------------------------------------------|
D--------------------------0--------------------5-h7=-------------7-|
G-----------------------0h2--0----------------------------------7---|
B---0--2--3------------3--------------------------------------------|
E-------------------------------------------------------------------|

Sec3
     Am                  C                         Dm
  0:23| 0:24| 0:25| 0:26| 0:27| 0:28| 0:29| 0:30| 0:31| 0:32| 0:33|
E------------------------------------------------------------------|
A-6--5=-----------5------------------------------------------------|
D-------------------h7-5-------------------------5-7=---------7-p5-|
G------------------------5=---------------5--5h7-------------------|
B------------------------------------------------------------------|
E------------------------------------------------------------------|

Sec4
   Dm                   Am                     C                 Dm
  0:34| 0:35| 0:36| 0:37| 0:38| 0:39| 0:40| 0:41| 0:42| 0:43| 0:44|
E-----------------------------8--7--5-------------------------------|
A--------------------6--5=------5--5-----5--------------------------|
D--7=--------------7----------------------h7-5-5=-------------------|
G----------------7-----------------------------5=----5h7h8-7-5h7p5--|
B-----------------------------------------------------------------5-|
E-------------------------------------------------------------------|

Sec5
                         G                 Em                     F
  0:45| 0:46| 0:47| 0:48| 0:49| 0:50| 0:51| 0:52| 0:53| 0:54| 0:55|
E------------------------------------8p7--------------------0-1/0---|
A------------------------8=--------------8-5=----8/7--------1-----1-|
D------7-----------7--7-------(12)=------------------7-4=---0-------|
G---7-7---7-----7-7--7----------------------------------------------|
B=---5---5-5-5---5--------------------------------------------------|
E-------------------------------------------------------------------|

Sec6
                  F                        Em                  Bm
  0:56| 0:57| 0:58| 0:59| 1:00| 1:01| 1:02| 1:03| 1:04| 1:05| 1:06|
E------3-0--0-1/0------------3-3p0---0-1/0-0=----------------------|
A----1------1-----1--------1---------1----------------------7--7=--|
D--2--------0------------2-----------0--------------------9--------|
G-------------------------------------------------------9----------|
B-----------------------------------------(7)=---------------------|
E------------------------------------------------------------------|

Sec7
                 D                    Em
  1:07| 1:08| 1:09| 1:10| 1:11| 1:12| 1:13| 1:14| 1:15| 1:16| 1:17|
E-------------------------------------------------------------------|
A-----------7----10=------------------------------------------------|
D------------h9-7-------------------7-9=--------------9p7-9=--------|
G------------------------------7-7h9--------------------------------|
B-------------------------------------------------------------------|
E-------------------------------------------------------------------|

Sec8
               Bm                    D                    Em
  1:18| 1:19| 1:20| 1:21| 1:22| 1:23| 1:24| 1:25| 1:26| 1:27| 1:28|
E--------------------10-9--5----------------------------------------|
A------------8-7=------7--7----7------------------------------------|
D-0--------9--------------------h9-7-7=-------------------------9---|
G--------9---------------------------7=----7h9h10-9-7h9p7----9-9----|
B---------------------------------------------------------7---7---7-|
E-------------------------------------------------------------------|

Sec9
               G                   Em                 F
  1:29| 1:30| 1:31| 1:32| 1:33| 1:34| 1:35| 1:36| 1:37| 1:38| 1:39|
E------------------------------8p7--------------0-1/0-----------3-5-|
A--------------8=-----------------7-5=-8/7------1-----1=------1-----|
D---------9--9---------(12)=--------------7-4---0-----------2-------|
G-9----9-9--9-------------------------------------------------------|
B--7-7--7-----------------------------------------------------------|
E-------------------------------------------------------------------|

Sec10
            F                     Em               Bm
  1:40| 1:41| 1:42| 1:43| 1:44| 1:45| 1:46| 1:47| 1:48| 1:49| 1:50|
E-p3--0-1/0---------3-3p0----0-/0-0=-------------------------------|
A-----1-----1-----1----------1-------------------8-7=--------------|
D-----0---------2------------0-----------------9-------------------|
G--------------------------------------------9---------------------|
B--------------------------------(7)=------------------------------|
E------------------------------------------------------------------|

Sec11
                                                               Las
            D                         Em                  Em
  1:51| 1:52| 1:53| 1:54| 1:55| 1:56| 1:57| 1:58| 1:59| 2:00| 2:01|
E------------------------------------------------------------------|
A------7----10=------10=-------------------------------------------|
D-------h9-7-------7----7=----------7-9=----9^--------9p7-9=-------|
G-------------------------------7-h9--------7----------------------|
B------------------------------------------------------------------|
E------------------------------------------------------------------|

Sec12
leyes salvajes   empanan   mi huida            el estanque
                   Bm                     D                   Em
  2:02| 2:03| 2:04| 2:05| 2:06| 2:07| 2:08| 2:09| 2:10| 2:11| 2:12|
E------------------------------------------------------------------|
A----------------8-7=-----10---------7---10=------10---------------|
D-/-0----------9------------7---------7-----7-7--7--7-------7-9=---|
G------------9---------------9---------9-----9--9----9-7-7h9-------|
B------------------------------------------------------------------|
E------------------------------------------------------------------|

Sec13
no para de crecer                 tanto sube el nivel
                         G                      Em
  2:13| 2:14| 2:15| 2:16| 2:17| 2:18| 2:19| 2:20| 2:21| 2:22| 2:23|
E------------------------------------------8p7---------------------|
A------------------------8=-------------------8-5=-----p0----------|
D-------------------9-7------(12)=-----------------------9/---3----|
G--------------------------------------------------------7/---1----|
B------------------------------------------------------------------|
E------------------------------------------------------------------|

Sec14
         el mar             uohouoh          se derrama ahogandome
        F                          F                            Em
  2:24| 2:25| 2:26| 2:27| 2:28| 2:29| 2:30| 2:31| 2:32| 2:33| 2:34|
E-0-1/0----------3---3-------0-1/0---------3------3-------0-1/0----|
A-1-----1----------1---1-----1-----1-----1----1------1----1------0-|
D-0--------------------------0----------------------------0------0-|
G----------------------------------------------------------------2-|
B----------------------------------------------------------------2-|
E------------------------------------------------------------------|

Sec15

                          tanto sube el nivel            el mar
                   G                                             F
  2:35| 2:36| 2:37| 2:38| 2:39| 2:40| 2:41| 2:42| 2:43| 2:44| 2:45|
E----------------------------------8/7---------------------0-1/0---|
A------------------8=-----------------8-5-------p0---------1-----1-|
D-------------9-7------(12)=----------------------9/---3---0-------|
G-------------------------------------------------7/---1-----------|
B------------------------------------------------------------------|
E------------------------------------------------------------------|

Sec16
            uohouoh                    se derrama ahogandome
                       F                         Am
  2:46| 2:47| 2:48| 2:49| 2:50| 2:51| 2:52| 2:53| 2:54| 2:55| 2:56|
E-----3----5-3---0-1/0-------------3----0-1/0----0--0--0--0--0--0--|
A-------1--------1-----1--------1----1--1--------1--1--1--1--1--1--|
D----------------0----------------------0--------2--2--2--2--2--2--|
G------------------------------------------------2--2--2--2--2--2--|
B------------------------------------------------------------------|
E------------------------------------------------------------------|

Sec17
    ahogandome              y solo hay arena
        A#                      Dm                   Am
  2:57| 2:58| 2:59| 3:00| 3:01| 3:02| 3:03| 3:04| 3:05| 3:06| 3:07|
E-0--0--1--1--1--1--1--1--1--1--1----------------------------------|
A-1--1--3--3--3--3--3--3--3--3--3------------------6-5=-----/-0----|
D-2--2--3--3--3--3--3--3--3--3--2----------------7-----------------|
G-2--2--3--3--3--3--3--3--3--3--0--------------7-------------------|
B------------------------------------------------------------------|
E------------------------------------------------------------------|

Sec18
             C                        Dm                   Dm
  3:08| 3:09| 3:10| 3:11| 3:12| 3:13| 3:14| 3:15| 3:16| 3:17| 3:18|
E------------------------------------------------------------------|
A------5-----8=-------8=-------------------------------------------|
D-------h7-5--------5----5----------5-7=-------7^------7p5-7=------|
G--------------------------5=--5-5h7-----------5-------------------|
B------------------------------------------------------------------|
E------------------------------------------------------------------|

Sec19
solo en este  momento     el mal entendido        el estanque
                  Am                       C
  3:19| 3:20| 3:21| 3:22| 3:23| 3:24| 3:25| 3:26| 3:27| 3:28| 3:29|
E----------------------------8--7-----------------------------------|
A---------------6-5=-----------5--5-5-5-----------------------------|
D-------------7------------------------h7-5-------------------------|
G-----------7------------------------------5=----------------7------|
B---------------------------------------------------------7h8-8--7--|
E-----------------------------------------------------------------8-|

Sec20
       oh el estanque           tanto sube el nivel
    Dm                   G                        Em
  3:30| 3:31| 3:32| 3:33| 3:34| 3:35| 3:36| 3:37| 3:38| 3:39| 3:40|
E--------------------------------------------8/7-------------------|
A------------------------8=---------------------8-5=--------p0-----|
D-------------------9-7------(12)=-----------------------------9/--|
G--------------------------------------------------------------7/--|
B------------------------------------------------------------------|
E-7/6--------------------------------------------------------------|

Sec21
       el mar             uohouoh            se derrama ahogandome
               F                   F                         Am
  3:41| 3:42| 3:43| 3:44| 3:45| 3:46| 3:47| 3:48| 3:49| 3:50| 3:51|
E--------0-1/0-----3----3----0-1/0----------1---1----0-1/0---0--0--|
A--------1-----1-----1---1---1-----1------3---3------1-------1--1--|
D--3-----0-------------------0-----------------------0-------2--2--|
G--1---------------------------------------------------------2--2--|
B------------------------------------------------------------------|
E------------------------------------------------------------------|

Sec22
               ahogandome        y solo hay arena
                    A#                      Dm
  3:52| 3:53| 3:54| 5:55| 3:56| 3:57| 3:58| 3:59| 4:00| 4:01| 4:02|
E-0--0--0--0--0--0--1--1--1--1--1--1--1--1--1----------------------|
A-1--1--1--1--1--1--3--3--3--3--3--3--3--3--3----------------------|
D-2--2--2--2--2--2--3--3--3--3--3--3--3--3--2----------------------|
G-2--2--2--2--2--2--3--3--3--3--3--3--3--3--0----------------------|
B------------------------------------------------------------------|
E------------------------------------------------------------------|

Sec23

  4:03| 4:04| 4:05| 4:06| 4:07| 4:08| 4:09| 4:10| 4:11| 4:12| 4:13|
E------------------------------------------------------------------|
A------------------------------------------------------------------|
D------------------------------------------------------------------|
G------------------------------------------------------------------|
B------------------------------------------------------------------|
E------------------------------------------------------------------|

Sec24

  4:14|
E------|
A------|
D------|
G------|
B------|
E------|
            
Submit corrections


        El Estanque lessons Hard to play? Try these video lessons and learn fast El Estanque lessons
        
↑ Back to top | Tablatures and chords for acoustic guitar and electric guitar, ukulele, drums are parodies/interpretations of the original songs. You may use it for private study, scholarship, research or language learning purposes only