Home » H » Hermans Hermits »

Hermans Hermits - Mrs Brown Youve Got A Lovely Daughter Tabs

Artists:  A B C D E F G H I J K L M N O P Q R S T U V W X Y Z # 

Mrs Brown Youve Got A Lovely Daughter Tabs

(ver. 1) Click to play this song!
Hermans Hermits
Gtr I (E A D G B E) - 'Keith Hopwood - Electric Guitar'


 Intro
  Q=134(8=s8)
         N.C.       C          Em/B      Dm/A    G/B
 4/4
  Gtr I
          PM---------------------------------------------|
                                                 |-3-|
  H    E  E E E      E  E  E E E E E E   E E E E Q S S E E
|---------------||---8--8--8-x-7-7-7-x-|-5-5-5-x-7-7-7-7-x--||
|---------------||o--8--8--8-x-8-8-8-x-|-6-6-6-x-8-8-8-8-x-o||
|---------------||---9--9--9-x-9-9-9-x-|-7-7-7-x-7-7-7-7-x--||
|-----------7-9-||--10-10-10-x-9-9-9-x-|-7-7-7-x-9-9-9-9-x--||
|--------10-----||o--------------------|-------------------o||
|---------------||---------------------|--------------------||


 1st Verse
  C          Em/B      Dm/A    G/B
   PM-------------------------------------
                               |-3-|
   E  E  E E E E E E   E E E E Q S S E E
|--8--8--8-x-7-7-7-x-|-5-5-5-x-7-7-7-7-x-|
|--8--8--8-x-8-8-8-x-|-6-6-6-x-8-8-8-8-x-|
|--9--9--9-x-9-9-9-x-|-7-7-7-x-7-7-7-7-x-|
|-10-10-10-x-9-9-9-x-|-7-7-7-x-9-9-9-9-x-|
|--------------------|-------------------|
|--------------------|-------------------|


  C          Em/B      Dm/A    G/B
 --------------------------------------|
                               |-3-|
   E  E  E E E E E E   E E E E Q S S E E
|--8--8--8-x-7-7-7-x-|-5-5-5-x-7-7-7-7-x-|
|--8--8--8-x-8-8-8-x-|-6-6-6-x-8-8-8-8-x-|
|--9--9--9-x-9-9-9-x-|-7-7-7-x-7-7-7-7-x-|
|-10-10-10-x-9-9-9-x-|-7-7-7-x-9-9-9-9-x-|
|--------------------|-------------------|
|--------------------|-------------------|


  C          Em/B      Dm/A    G/B
   PM-------------------------------------
                               |-3-|
   E  E  E E E E E E   E E E E Q S S E E
|--8--8--8-x-7-7-7-x-|-5-5-5-x-7-7-7-7-x-|
|--8--8--8-x-8-8-8-x-|-6-6-6-x-8-8-8-8-x-|
|--9--9--9-x-9-9-9-x-|-7-7-7-x-7-7-7-7-x-|
|-10-10-10-x-9-9-9-x-|-7-7-7-x-9-9-9-9-x-|
|--------------------|-------------------|
|--------------------|-------------------|


  C          Em/B      Dm/A    G/B
 --------------------------------------|
                               |-3-|
   E  E  E E E E E E   E E E E Q S S E E
|--8--8--8-x-7-7-7-x-|-5-5-5-x-7-7-7-7-x-|
|--8--8--8-x-8-8-8-x-|-6-6-6-x-8-8-8-8-x-|
|--9--9--9-x-9-9-9-x-|-7-7-7-x-7-7-7-7-x-|
|-10-10-10-x-9-9-9-x-|-7-7-7-x-9-9-9-9-x-|
|--------------------|-------------------|
|--------------------|-------------------|


  Am                C
  PM---------------------------------------
  E E E E E E E E    E  E  E E  E  E  E E
|-5-5-5-x-5-5-5-x-|--8--8--8-x--8--8--8-x-|
|-5-5-5-x-5-5-5-x-|--8--8--8-x--8--8--8-x-|
|-5-5-5-x-5-5-5-x-|--9--9--9-x--9--9--9-x-|
|-7-7-7-x-7-7-7-x-|-10-10-10-x-10-10-10-x-|
|-----------------|-----------------------|
|-----------------|-----------------------|


  Am                C
 ---------------------------------------|
  E E E E E E E E    E  E  E E  E  E  E E
|-5-5-5-x-5-5-5-x-|--8--8--8-x--8--8--8-x-|
|-5-5-5-x-5-5-5-x-|--8--8--8-x--8--8--8-x-|
|-5-5-5-x-5-5-5-x-|--9--9--9-x--9--9--9-x-|
|-7-7-7-x-7-7-7-x-|-10-10-10-x-10-10-10-x-|
|-----------------|-----------------------|
|-----------------|-----------------------|


  Am                C
  PM------------------------------------------------------------|
  E E E E E E E E    E  E  E E  E  E  E E    E  E  E E  E  E  E E
|-5-5-5-x-5-5-5-x-|--8--8--8-x--8--8--8-x-|--8--8--8-x--8--8--8-x-|
|-5-5-5-x-5-5-5-x-|--8--8--8-x--8--8--8-x-|--8--8--8-x--8--8--8-x-|
|-5-5-5-x-5-5-5-x-|--9--9--9-x--9--9--9-x-|--9--9--9-x--9--9--9-x-|
|-7-7-7-x-7-7-7-x-|-10-10-10-x-10-10-10-x-|-10-10-10-x-10-10-10-x-|
|-----------------|-----------------------|-----------------------|
|-----------------|-----------------------|-----------------------|


                                         2nd - 4th Verses
                                      $
  G/B                                     C          Em/B
  PM-------------------------------------------------------|
                            |-3-|
  E E E E E E E E   E E E E Q S S E E      E  E  E E E E E E
|-7-7-7-x-7-7-7-x-|-7-7-7-x-7-7-7-7-x-||---8--8--8-x-7-7-7-x--|
|-8-8-8-x-8-8-8-x-|-8-8-8-x-8-8-8-8-x-||o--8--8--8-x-8-8-8-x--|
|-7-7-7-x-7-7-7-x-|-7-7-7-x-7-7-7-7-x-||---9--9--9-x-9-9-9-x--|
|-9-9-9-x-9-9-9-x-|-9-9-9-x-9-9-9-9-x-||--10-10-10-x-9-9-9-x--|
|-----------------|-------------------||o---------------------|
|-----------------|-------------------||----------------------|


  Dm/A    G/B         C          Em/B      Dm/A    G/B
  PM-------------------------------------------------------|
          |-3-|                                    |-3-|
  E E E E Q S S E E    E  E  E E E E E E   E E E E Q S S E E
|-5-5-5-x-7-7-7-7-x-|--8--8--8-x-7-7-7-x-|-5-5-5-x-7-7-7-7-x-|
|-6-6-6-x-8-8-8-8-x-|--8--8--8-x-8-8-8-x-|-6-6-6-x-8-8-8-8-x-|
|-7-7-7-x-7-7-7-7-x-|--9--9--9-x-9-9-9-x-|-7-7-7-x-7-7-7-7-x-|
|-7-7-7-x-9-9-9-9-x-|-10-10-10-x-9-9-9-x-|-7-7-7-x-9-9-9-9-x-|
|-------------------|--------------------|-------------------|
|-------------------|--------------------|-------------------|


  C          Em/B      Dm/A    G/B         C          Em/B
   PM-------------------------------------------------------|
                               |-3-|
   E  E  E E E E E E   E E E E Q S S E E    E  E  E E E E E E
|--8--8--8-x-7-7-7-x-|-5-5-5-x-7-7-7-7-x-|--8--8--8-x-7-7-7-x--|
|--8--8--8-x-8-8-8-x-|-6-6-6-x-8-8-8-8-x-|--8--8--8-x-8-8-8-x--|
|--9--9--9-x-9-9-9-x-|-7-7-7-x-7-7-7-7-x-|--9--9--9-x-9-9-9-x--|
|-10-10-10-x-9-9-9-x-|-7-7-7-x-9-9-9-9-x-|-10-10-10-x-9-9-9-x--|
|--------------------|-------------------|---------------------|
|--------------------|-------------------|---------------------|


  Dm/A    G/B         Am                C
  PM--------------------------------------------------------|
          |-3-|
  E E E E Q S S E E   E E E E E E E E    E  E  E E  E  E  E E
|-5-5-5-x-7-7-7-7-x-|-5-5-5-x-5-5-5-x-|--8--8--8-x--8--8--8-x--|
|-6-6-6-x-8-8-8-8-x-|-5-5-5-x-5-5-5-x-|--8--8--8-x--8--8--8-x--|
|-7-7-7-x-7-7-7-7-x-|-5-5-5-x-5-5-5-x-|--9--9--9-x--9--9--9-x--|
|-7-7-7-x-9-9-9-9-x-|-7-7-7-x-7-7-7-x-|-10-10-10-x-10-10-10-x--|
|-------------------|-----------------|------------------------|
|-------------------|-----------------|------------------------|


  Am                C                       Am
  PM------------------------------------------------------|
  E E E E E E E E    E  E  E E  E  E  E E   E E E E E E E E
|-5-5-5-x-5-5-5-x-|--8--8--8-x--8--8--8-x-|-5-5-5-x-5-5-5-x-|
|-5-5-5-x-5-5-5-x-|--8--8--8-x--8--8--8-x-|-5-5-5-x-5-5-5-x-|
|-5-5-5-x-5-5-5-x-|--9--9--9-x--9--9--9-x-|-5-5-5-x-5-5-5-x-|
|-7-7-7-x-7-7-7-x-|-10-10-10-x-10-10-10-x-|-7-7-7-x-7-7-7-x-|
|-----------------|-----------------------|-----------------|
|-----------------|-----------------------|-----------------|


  C
   PM--------------------------------------------
   E  E  E E  E  E  E E    E  E  E E  E  E  E E
|--8--8--8-x--8--8--8-x-|--8--8--8-x--8--8--8-x-|
|--8--8--8-x--8--8--8-x-|--8--8--8-x--8--8--8-x-|
|--9--9--9-x--9--9--9-x-|--9--9--9-x--9--9--9-x-|
|-10-10-10-x-10-10-10-x-|-10-10-10-x-10-10-10-x-|
|-----------------------|-----------------------|
|-----------------------|-----------------------|


           To Coda
  G/B                Bb
 ----------------------------------|
  E E E E E E E E    E E E E E E E E
|-7-7-7-x-7-7-7-x--|-6-6-6-x-6-6-6-x--||
|-8-8-8-x-8-8-8-x--|-6-6-6-x-6-6-6-x--||
|-7-7-7-x-7-7-7-x--|-7-7-7-x-7-7-7-x--||
|-9-9-9-x-9-9-9-x--|-8-8-8-x-8-8-8-x--||
|------------------|------------------||
|------------------|------------------||


 Bridge
  Eb/G              Gm                Ab                Bb
  PM------------------------------------------------------------------|
  E E E E E E E E   E E E E E E E E   E E E E E E E E   E E E E E E E E
|-3-3-3-x-3-3-3-x-|-3-3-3-x-3-3-3-x-|-4-4-4-x-4-4-4-x-|-6-6-6-x-6-6-6-x--|
|-4-4-4-x-4-4-4-x-|-3-3-3-x-3-3-3-x-|-4-4-4-x-4-4-4-x-|-6-6-6-x-6-6-6-x--|
|-3-3-3-x-3-3-3-x-|-3-3-3-x-3-3-3-x-|-5-5-5-x-5-5-5-x-|-7-7-7-x-7-7-7-x--|
|-5-5-5-x-5-5-5-x-|-5-5-5-x-5-5-5-x-|-6-6-6-x-6-6-6-x-|-8-8-8-x-8-8-8-x--|
|-----------------|-----------------|-----------------|------------------|
|-----------------|-----------------|-----------------|------------------|


                                                  1.
  Gb                Bbm               Bb              G/B   N.C.
  PM----------------------------------|               PM---------|
                                                             |-3-|
  E E E E E E E E   E E E E E E E E   q  Q  H      Q  q  q   E E E
|-2-2-2-x-2-2-2-x-|-6-6-6-x-6-6-6-x-|-6----------|----7--7----------||
|-2-2-2-x-2-2-2-x-|-6-6-6-x-6-6-6-x-|-6----------|----8--8---------o||
|-3-3-3-x-3-3-3-x-|-6-6-6-x-6-6-6-x-|-7----------|----7--7-----7-9--||
|-4-4-4-x-4-4-4-x-|-8-8-8-x-8-8-8-x-|-8----------|----9--9--10------||
|-----------------|-----------------|------------|-----------------o||
|-----------------|-----------------|------------|------------------||


                                           Outro
  2.
      D.S. al Coda &
     G/B   N.C.       G/B                   C          Em/B
     PM-------------------|   PM-----------------------------|
            |-3-|             |-3-|
  Q  q  q   E E E     E E E E Q S S E E      E  E  E E E E E E
|----7--7----------||-7-7-7-x-7-7-7-7-x-||---8--8--8-x-7-7-7-x--|
|----8--8----------||-8-8-8-x-8-8-8-8-x-||o--8--8--8-x-8-8-8-x--|
|----7--7-----7-9--||-7-7-7-x-7-7-7-7-x-||---9--9--9-x-9-9-9-x--|
|----9--9--10------||-9-9-9-x-9-9-9-9-x-||--10-10-10-x-9-9-9-x--|
|------------------||-------------------||o---------------------|
|------------------||-------------------||----------------------|


  Dm/A    G/B         C          Em/B      Dm/A    G/B
  PM-------------------------------------------------------|
          |-3-|                                    |-3-|
  E E E E Q S S E E    E  E  E E E E E E   E E E E Q S S E E
|-5-5-5-x-7-7-7-7-x-|--8--8--8-x-7-7-7-x-|-5-5-5-x-7-7-7-7-x--||
|-6-6-6-x-8-8-8-8-x-|--8--8--8-x-8-8-8-x-|-6-6-6-x-8-8-8-8-x-o||
|-7-7-7-x-7-7-7-7-x-|--9--9--9-x-9-9-9-x-|-7-7-7-x-7-7-7-7-x--||
|-7-7-7-x-9-9-9-9-x-|-10-10-10-x-9-9-9-x-|-7-7-7-x-9-9-9-9-x--||
|-------------------|--------------------|-------------------o||
|-------------------|--------------------|--------------------||            
Submit corrections

↑ Back to top | Tablatures and chords for acoustic guitar and electric guitar, ukulele, drums are parodies/interpretations of the original songs. You may use it for private study, scholarship, research or language learning purposes only