Home » H » Hellyeah »

Hellyeah - You Wouldn't Know Tabs

Artists:  A B C D E F G H I J K L M N O P Q R S T U V W X Y Z # 

You Wouldn't Know Tabs

(ver. 2) Click to play this song!
Hellyeah
 Rating:
4/5 (9 votes)
                (Intro)
|------------------------------------------------|
|------------------------------------------------|
|------------------------------------------------|
|------5h7-----7/11-----11\5-----5/7-----7/11----|
|--0--------0--------0--------0-------0----------|
|------------------------------------------------|


|------------------------------------------------|
|------------------------------------------------|
|------------------------------------------------|
|------5h7-----7/11-----11\5------5p4/2-4p0------|
|--0--------0--------0--------0------------------|
|------------------------------------------------|


|--------------------------------------------------------|
|--------------------------------------------------------|
|---------0-----0-------0------------------------------0-|
|------4----4-------4------4-----4------------0----------|
|--3----------3-------3------3-----------4--------4------|
|-----------------------------------3-------3--------3---|


|------------------------------------------------|
|------------------------------------------------|
|------------------------------------------------|
|------5h7-----7/11-----11\5-----0-11b12b11~~----|
|--0--------0--------0--------0------------------|
|------------------------------------------------|


|------------------------------------------------|
|------------------------------------------------|
|------------------------------------------------|
|------5h7-----7/11-----11\5------5p4/2-4p0------|
|--0--------0--------0--------0------------------|
|------------------------------------------------|


|----------------------------------------------------|
|------------------------0---------------------------|
|---------0-----0------------0-------------------0---|
|------4----4-------4----------4---------------------|
|--3----------3-------3----------3---------4---------|
|-------------------------------------3-------3------|
            
Submit corrections

↑ Back to top | Tablatures and chords for acoustic guitar and electric guitar, ukulele, drums are parodies/interpretations of the original songs. You may use it for private study, scholarship, research or language learning purposes only