Home » H » Hellyeah »

Hellyeah - Thank You Tabs

Artists:  A B C D E F G H I J K L M N O P Q R S T U V W X Y Z # 

Thank You Tabs

(ver. 1) Click to play this song!
Hellyeah
 Rating:
4.3/5 (6 votes)
                Drop D tuning down two & a half steps.
Bb,F,Bb,Eb,G,C


For the 'Intro' I have put in the fingers that I use to play this.  Might make it easier 
learn.? F=finger 1=index; 2=middle; 3=ring; 4=pinkie

Intro: Clean
|---------------------------------------------------------------|
|-------------------------------------------------------3---2---|
|-----------------------------------2-------0-------2-----2---2-|
|-----5---4---4-----4---2---0-----4---4---4---4---4---4---------|
|-------------------------------2-------2-------0---------------|
|-0h2---2---2---2-0---0---0---0---------------------------------|

F   1 4 1 3 1 3 1   3   1       1 3 1 3 1 3   3   3 1 3 2 1 1 1


Intro: Distorted Lead (Note: this lead part isn't timed into the tab above & I fogot how 
played it on my vid, sorry)
|------------------------------|-7-5h7p5---5-------------------|
|------------------------------|---------8----8h10p8-7-8-7h8-5-|
|-4-2h4p2---2--0h2p0---0-------|-------------------------------|
|---------5----------4---4h5-2-|-------------------------------|
|------------------------------|-------------------------------|
|------------------------------|-------------------------------|
I know that they're some mistakes here and it's not harmonized, but it does point you in 
right direction.

Pre-chorus: Clean
|-----------------------------------|   |-------| Weird 'lil fill on the
|-----------------------------------|2X |-------| second time?
|-----------------------------------|   |-------|
|-5-5-5-5-5-5-5-5 / 7-7-7-7-7-7-7-7-|   |-----5-|
|-5-5-5-5-5-5-5-5 / 7-7-7-7-7-7-7-7-|   |--/5---|
|-5-5-5-5-5-5-5-5 / 7-7-7-7-7-7-7-7-|   |0------|


Chorus: Dist.  (Again timing is off, only my second tab)
|----------------------------------------|
|----------------------------------------|
|----------4-4-444-----------------------|
|-/5-4-2-0-4-4-444-5-5-555--22-2-22-2--0-|
|----------2-2-222-5-5-555--22-2-22-2--0-|
|------------------5-5-555--22-2-22-2--0-|
pm.                         ..   ..


That is all that I've learned so far.  Email me any corrections or if you know the solo 
helps you guys and gals out.

Dion
            
Submit corrections

↑ Back to top | Tablatures and chords for acoustic guitar and electric guitar, ukulele, drums are parodies/interpretations of the original songs. You may use it for private study, scholarship, research or language learning purposes only