Home » H » Hellyeah »

Hellyeah - Rotten To The Core Tabs

Artists:  A B C D E F G H I J K L M N O P Q R S T U V W X Y Z # 

Rotten To The Core Tabs

(ver. 3) Click to play this song!
Hellyeah
 Rating:
4/5 (4 votes)
                (Intro)
E|---------------------|------------------|
B|---------------------|------------------|
G|---------------------|------------------|
D|-0-1-3--0-1-3-1-0-1-3|-0-1-3-1-0-1-3----|
A|-0-1-3--0-1-3-1-0-1-3|-0-1-3-1-0-1-3----|
D|-0-1-3--0-1-3-1-0-1-3|-0-1-3-1-0-1-3----|

E|---------------------|------------------|
B|---------------------|------------------|
G|---------------------|------------------|
D|-0-1-3-1-0-1-3-------|-0-1-3-1-0-1-3----|  x4
A|-0-1-3-1-0-1-3-------|-0-1-3-1-0-1-3----|
D|-0-1-3-1-0-1-3-------|-0-1-3-1-0-1-3----|
            
Submit corrections

↑ Back to top | Tablatures and chords for acoustic guitar and electric guitar, ukulele, drums are parodies/interpretations of the original songs. You may use it for private study, scholarship, research or language learning purposes only