Home » H » Hellyeah »

Hellyeah - Alcohaulin' Ass Tabs

Artists:  A B C D E F G H I J K L M N O P Q R S T U V W X Y Z # 

Alcohaulin' Ass Tabs

(ver. 3) Click to play this song!
Hellyeah
 Rating:
4/5 (4 votes)
                please take the time to comment on this tab, as i took the time to post it for

drop D
mess around with this part for the strumming pattern.
-------------------------- -----|   listen for
-3--3--3---------3------3- --4--|    picking
-2--2--2------0----0----2- --0--|    pattern
-0--0---------0------0--o- --5--|
-0--0-------------------o- --6--|
----------0h3------------- -----|


listen to the song for the pattern.
this is the "ALCOHAULIN ASS" part
------------------------|
-3----------------------|
-2--------5-----------4-|
-0--------3-----------2-|
-0--------3-----------2-|
----------3-----------2-|

"split me right in two" (also listen for strumming pattern)
--------0--------|
-3------1------3-|
-2------0------0-|
-0------2------0-|
-0------3------2-|
-----------------|
            
Submit corrections

↑ Back to top | Tablatures and chords for acoustic guitar and electric guitar, ukulele, drums are parodies/interpretations of the original songs. You may use it for private study, scholarship, research or language learning purposes only