» » »

Hellogoodbye - Here (In Your Arms) Tabs

Artists:  A B C D E F G H I J K L M N O P Q R S T U V W X Y Z # 

Here (In Your Arms) Tabs

(ver. 2) Click to play this song!
Hellogoodbye
 Rating:
4/5 (4 votes)

 Here (In Your Arms) lessons Tabs too difficult? Try these video lessons and learn fast
 
                Here in your Arms
Capo 5th Fret


e|--------------------------------|
B|--------------------------------|
G|--------------------------------| X2
D|--------------------------------|
A|-8-8-8-8---------5-5-5-5--------|
E|---------8-8-8-8---------6-6-6-6|

e|--------8------------------8-------------------8-----------------8-----|
B|---8-------8----8------8-----8---8--------8------8----8------8-----8--8|
G|10---10------10------9---9-----9-------10---10-----10------9---9-----9-|X4
D|-----------------------------------------------------------------------|
A|-----------------------------------------------------------------------|
E|-----------------------------------------------------------------------|


Chorus
C    G    Am     F X2

e|-------------------------|
B|-------------------------|
G|-12/---12-12-10----------| X8      (/ = Slide Down)
D|-------------------------|
A|-------------------------|
E|-------------------------|


Verse
C    G     Am      F  X4
Pick/Strum the tops 4 Strings

Chorus
C    G     Am      F X2


e|-13-15--13-15--13-12--13-13--12-13-13----------------------------| X4
B|-----------------------------------------------------------------|
G|-----------------------------------------------------------------|
D|-----------------------------------------------------------------|
A|-----------------------------------------------------------------|
E|-----------------------------------------------------------------|

Our Lips, Can Touch.  Our Lips, Can Touch, Here (Dont Play)

C    G     Am      F  X4
Pick/Strum Lightly the Strings

e|-13-15--13-15-13--12-13-12-13 (on the last F)


You are The one, The one that lies close to me, Whispers Hello I miss you quite Terribly 
Play)

C   G    Am       F  X4



This is my 1st Tab
Please Comment
            
Submit corrections


        Here (In Your Arms) lessons Hard to play? Try these video lessons and learn fast Here (In Your Arms) lessons
        
↑ Back to top | Tablatures and chords for acoustic guitar and electric guitar, ukulele, drums are parodies/interpretations of the original songs. You may use it for private study, scholarship, research or language learning purposes only