» » »

Hellogoodbye - Figures A And B Tabs

Artists:  A B C D E F G H I J K L M N O P Q R S T U V W X Y Z # 

Figures A And B Tabs

(ver. 1) Click to play this song!
Hellogoodbye
 Rating:
4/5 (7 votes)

 Figures A And B lessons Tabs too difficult? Try these video lessons and learn fast
 
                Intro
|-7----5----7----3-----7-5-7-8-7-5-3-5-3-2h3p2h3p2h3p2-|
|------------------------------------------------------|
|------------------------------------------------------|
|------------------------------------------------------|
|------------------------------------------------------|
|------------------------------------------------------|

Verse
|-------------------------------------------------|
|-------------------------------------------------|
|-0-0-0-0-0-0-0-0-2-2-2-2-2-2-2-2-4-4-4-4-4-4-4-4-|
|-------------------------------------------------|
|-------------------------------------------------|
|-------------------------------------------------|

|-------------------------------------------------|
|-------------------------------------------------|
|-----------------4-4-4-4-4h5p4h5-2-2-2-2-2-2-2-2-|
|-4-4-4-4-4-4-4-4---------------------------------|
|-------------------------------------------------|
|-------------------------------------------------|

|-------------------------|
|-------------------------|
|-4-4-4-4-4h5p4h5-7-5-4-2-|
|-------------------------|
|-------------------------|
|-------------------------|

Pre-Chorus
|-------------------|-------------------|
|-------------------|-------------------|
|-0-0-0-2-2-2-------|-0-0-0-2-2-2-------|
|-------------4-4-4-|-------------4-4-4-|
|-------------------|-------------------|
|-------------------|-------------------|

Verse

Pre-Chorus

Chorus
|---------------------------------------------------------|
|---------------------------------------------------------|
|-----------------------------5-5-5-5-5-5-5-5-5-5-5-5-5-5-|
|-5-5-5-5-5-5-5-5-5-5-5-5-5-5-5-5-5-5-5-5-5-5-5-5-5-5-5-5-| 2x
|-5-5-5-5-5-5-5-5-5-5-5-5-5-5-3-3-3-3-3-3-3-3-3-3-3-3-3-3-|
|-3-3-3-3-3-3-3-3-3-3-3-3-3-3-----------------------------|

|--------------------|
|--------------------|
|--------------------|
|-7---------------10-| 2x
|-7---------------10-|
|-5---------------8--|

Bridge
|---------------------------------------------------------|
|---------------------------------------------------------|
|-----------------------------5-5-5-5-5-5-5-5-5-5-5-5-5-5-|
|-5-5-5-5-5-5-5-5-5-5-5-5-5-5-5-5-5-5-5-5-5-5-5-5-5-5-5-5-|
|-5-5-5-5-5-5-5-5-5-5-5-5-5-5-3-3-3-3-3-3-3-3-3-3-3-3-3-3-|
|-3-3-3-3-3-3-3-3-3-3-3-3-3-3-----------------------------|
pm.......................................................

Outro
|---------------------------------------------------------|
|---------------------------------------------------------|
|-----------------------------5-5-5-5-5-5-5-5-5-5-5-5-5-5-|
|-5-5-5-5-5-5-5-5-5-5-5-5-5-5-5-5-5-5-5-5-5-5-5-5-5-5-5-5-| 4x
|-5-5-5-5-5-5-5-5-5-5-5-5-5-5-3-3-3-3-3-3-3-3-3-3-3-3-3-3-|
|-3-3-3-3-3-3-3-3-3-3-3-3-3-3-----------------------------|

This is my first complete tab an am pretty proud of it. It's a easy song an one of my 
off their album. enjoy!
            
Submit corrections


        Figures A And B lessons Hard to play? Try these video lessons and learn fast Figures A And B lessons
        
↑ Back to top | Tablatures and chords for acoustic guitar and electric guitar, ukulele, drums are parodies/interpretations of the original songs. You may use it for private study, scholarship, research or language learning purposes only