» » »

Hellogoodbye - Dear Jamie...Sincerely Me Tabs

Artists:  A B C D E F G H I J K L M N O P Q R S T U V W X Y Z # 

Dear Jamie...Sincerely Me Tabs

(ver. 1) Click to play this song!
Hellogoodbye
 Rating:
4/5 (4 votes)

 Dear Jamie...Sincerely Me lessons Tabs too difficult? Try these video lessons and learn fast
 
                                            Dear Jamie...Sincerely Me
                               hellogoodbye


I saw a good tab for the verses, and I thought I'd add onto it a little bit. Here goes!

   Dear Jamie, I've got a letter I would like to send...
e|---10-9------------------------------------------------------------------|
B|--------10---10--10----8-7-8-7----10-------------7-----------------------|
G|-----------------------------------------9--------7----------------------|
D|-------------------------------------------------------------------------|
A|-------------------------------------------------------------------------|
E|-------------------------------------------------------------------------|
   It's lacking strings of words with punctuation at the ends...
e|---10--9-----------------------------------------------------------------|
B|--------10---10--10-10-12-10---8-7---10-----7----------------------------|
G|---------------------------------------9--------7------------------------|
D|-------------------------------------------------------------------------|
A|-------------------------------------------------------------------------|
E|-------------------------------------------------------------------------|
   Should I trust this dialect...
e|-------------------------------------------------------------------------|
B|----7-7-7--10--10--8--7--------------------------------------------------|
G|-------------------------------------------------------------------------|
D|-------------------------------------------------------------------------|
A|-------------------------------------------------------------------------|
E|-------------------------------------------------------------------------|
  to convey the right effect?
e|-------------------------------------------------------------------------|
B|--7-7-7-10--10--7---3----------------------------------------------------|
G|-------------------------------------------------------------------------|
D|-------------------------------------------------------------------------|
A|-------------------------------------------------------------------------|
E|-------------------------------------------------------------------------|

-Dear Jamie, I've got some things I'd like to set in pen. I would have used a pencil but 
just not permanent. Should I trust the printers' ink to express the things I think?

This is a great band, a great album, and my first tab. Please rate, comment, and 
else you feel like doing!
            
Submit corrections


        Dear Jamie...Sincerely Me lessons Hard to play? Try these video lessons and learn fast Dear Jamie...Sincerely Me lessons
        
↑ Back to top | Tablatures and chords for acoustic guitar and electric guitar, ukulele, drums are parodies/interpretations of the original songs. You may use it for private study, scholarship, research or language learning purposes only