Home » H » Hellbillies »

Hellbillies - Den Finast Eg Veit Tabs

Artists:  A B C D E F G H I J K L M N O P Q R S T U V W X Y Z # 

Den Finast Eg Veit Tabs

(ver. 2) Click to play this song!
Hellbillies
                    
                    |-Hellbillies ~ Den finast eg veit-|
                     ==================================

Dette er hvordan jeg spiller sangen, ettersom originalen ikke spilles på
vanlig gitar er dette en vanskelig sang å lage tablatur til.

Jeg har lett mye rundt på internett etter reale tabs og chords til denne
sangen, men dem er det altfor få av. Det finnes noen, men de er veldig
godt spredd rundt på forskjellige steder, så her vil jeg gi dere en
komplett versjon, som jeg har laget ved hjelp av:
- v1, laget av Ronnie Øymoen
- Chords fra nortabs.net
- Og selvfølgelig mine egne ører for å prøve å gjøre alt optimalt.


Legg gjerne igjen en kommentar om feil/forbedringer, eller kontakt meg

~~~~~~~~~~~~~~~~~~~~~~~~~~~~~~~~~~~~~~~~~~~~~~~~~~~~~~~~~~~~~

/ = slide up
\ = slide down
h = hammer on 
p = pull off
b = bend
r = release
x = muted string
t = tap (with finger or pick)
~ = vibrato


~~~~~~~~~~~~~~~~~~~~~~~~~~~~~~~~~~~~~~~~~~~~~~~~~~~~~~~~~~~~~~
Intro:


-----3-5/7-5h7p5-3-5-3-2-3---------3-5/7-5h7p5-3h5-5-5p3-5p3--|
---3-----------------------------3----------------------------|
---0-----------------------------0----------------------------|
-------------------0---------------------------0--------------|
--------------------------------------------------------------|
-3-----------------------3------3-----------------------------|

-----3-5/7-5h7p5-3-5-3-2-3--------------0-----------2--3~~~---|
---3---------------------------------3--3---------3----3~~~---|
----------------------------------------0-------2------2~~~---|
-------------------0---------------0----0-----0--------0~~~---|
---------------------------------2----------------------------|
-3-----------------------3-----3------------------------------|


~~~~~~~~~~~~~~~~~~~~~~~~~~~~~~~~~~~~~~~~~~~~~~~~~~~~~~~~~~~~~~
Chords:

   Bb              C               Dm              Eb            
   -----------     -----------     -----------     -----------
   x               x     o   o     x x o           x x        
   ===========     ===========     ===========     ===========
   | x | | | x     | | | | x |     | | | | | x   3 | | | x | x
   -----------     -----------     -----------     -----------
   | | | | | |     | | x | | |     | | | x | |     | | | | x |
   -----------     -----------     -----------     -----------
   | | x x x |     | x | | | |     | | | | x |     | | x | | |
   -----------     -----------     -----------     -----------
   | | | | | |     | | | | | |     | | | | | |     | | | | | |



   F               F/C             Gm           
   -----------     -----------     -----------  
                x x                          
   ===========     ===========     ===========  
   x | | | x x     | | | | x x   3 x | | x x x  
   -----------     -----------     -----------  
   | | | x | |     | | | x | |     | | | | | |  
   -----------     -----------     -----------  
   | x x | | |     | | x | | |     | x x | | |  
   -----------     -----------     -----------  
   | | | | | |     | | | | | |     | | | | | |  

~~~~~~~~~~~~~~~~~~~~~~~~~~~~~~~~~~~~~~~~~~~~~~~~~~~~~~~~~~~~~~


Forsp. | F - C  Dm | F - C  -  |  F  -  C  Dm  |  Gm  Am  Bb  Csus4  |  -

	     F			    C	   F   Bb      C	F	C
1.	Dæ æ jaddi me rart koss det kan gå te, tenk at du går i lag med meg.
	   F			  C	  Dm
	Og'om det blæs kalt, æ eg varm og heit.
	    Gm	     C	       F
	For du æ den finast eg veit.

2.	I granskande skin frå ei gatelykt, æ'kji alt like trygt.
	Og spør du meg no, bi eg heilt i beit.
	Koffår den finast eg veit ?

		Bb		      F	     C	      F
Ref.	Men når dyna varmar kring oss båe to, i mørke natta.
	       Bb		     F
	Ska eg kviske i øyra ditt og svara på.
	       Dm C	Gm          F 
	Koffår du æ den finast eg veit.

Mell.sp. |  F  -  C  Dm  |  F  -  C  -  |

3.	Kor eg henta alt motet frå, kan'kji eg forstå.
	Men ein ting veit eg klart og greit:
	At du æ den finast eg veit.

Ref.	og når dyna varmar kring oss båe to, i mørke natta.
	Ska eg kviske i øyra ditt og svara på.
	Koffår du æ den finast eg veit.

Mell.sp. | F - C Dm | F - C - | F - C Dm | Gm  Am  Bb  C  |  Dm  Eb  Bb  -  |

	     Eb		  Bb/D		   Bbm/C#     F/C
Bridge	Nei, at eg skulde ha slik tur, det æ'kji te å tru.
	    Eb		    Bb/D	     Bbm/C#	    C	  F(gitar)
	Når alt va sl*tt, og eg skull gå, ved døra der stod du.   [STOPP]

4.	Dæ æ jaddi me rart.........osv. (som 1. vers)
	
Ref.	Og når dyna varmar kring oss båe to i mørke natta.
	Ska eg kviske i øyra ditt og svara på.
	Koffår du æ den finast eg veit.		X2

sl*ttsp.|  F  -  C  Dm  |  F  -  C  -  |  F  -  C  Dm  |  Gm  Am  Bb  C  |  F


~~~~~~~~~~~~~~~~~~~~~~~~~~~~~~~~~~~~~~~~~~~~~~~~~~~~~~~~~~~~~~
               Morten Kristiansen Larsen - 2009
~~~~~~~~~~~~~~~~~~~~~~~~~~~~~~~~~~~~~~~~~~~~~~~~~~~~~~~~~~~~~~
            
Submit corrections

↑ Back to top | Tablatures and chords for acoustic guitar and electric guitar, ukulele, drums are parodies/interpretations of the original songs. You may use it for private study, scholarship, research or language learning purposes only