Home » H » Hedley »

Hedley - Trip Tabs

Artists:  A B C D E F G H I J K L M N O P Q R S T U V W X Y Z # 

Trip Tabs

(ver. 3) Click to play this song!
Hedley
 Rating:
4/5 (4 votes)
                
ok there might be some errors but im pretty sure this is correct email

here it is its pretty easy:

--------------------------------------------------------------------|
--------------------------------------------------------------------|
-9-9-9-9-9-9-9-9--4-4-4-4-4-4-4-4--6-6-6-6-6-6-6-6------------------|
-9-9-9-9-9-9-9-9--4-4-4-4-4-4-4-4--6-6-6-6-6-6-6-6--7-7-7-7-7-7-7-7-|
-7-7-7-7-7-7-7-7--2-2-2-2-2-2-2-2--4-4-4-4-4-4-4-4--7-7-7-7-7-7-7-7-|
----------------------------------------------------5-5-5-5-5-5-5-5-|

during the verse this is what you play:

-------------------------------------------------------------------|
-------------------------------------------------------------------|
-----9--------9----------9--------9--------------------------------|
---9---9----9---9------9---9----9---9------------------------------|
-7--------6-------------------0------------------------------------|
--------------------9----------------------------------------------|
repeat twice

than start playing these chords during the pre chorus
---------------------------------------------------------------------------
---------------------------------------------------------------------------
-9-9-9-9-9-9-9-9--11-11-11-11-11-11-11-11--9-9-9-9-9-9-9-9--8-8-8-8-8-8-8-8
-9-9-9-9-9-9-9-9--11-11-11-11-11-11-11-11--9-9-9-9-9-9-9-9--8-8-8-8-8-8-8-8
-7-7-7-7-7-7-7-7---9--9--9--9--9--9--9--9--7-7-7-7-7-7-7-7--6-6-6-6-6-6-6-6
---------------------------------------------------------------------------

chorus

--------------------------------------------------------------------|
--------------------------------------------------------------------|
-9-9-9-9-9-9-9-9--4-4-4-4-4-4-4-4--6-6-6-6-6-6-6-6------------------|
-9-9-9-9-9-9-9-9--4-4-4-4-4-4-4-4--6-6-6-6-6-6-6-6--7-7-7-7-7-7-7-7-|
-7-7-7-7-7-7-7-7--2-2-2-2-2-2-2-2--4-4-4-4-4-4-4-4--7-7-7-7-7-7-7-7-|
----------------------------------------------------5-5-5-5-5-5-5-5-|

riff after chorus goes like this:
------------------------------------|
------------------------------------|
13-14-13-9-13-14-9-9-11-9-----------|
------------------------------------|
------------------------------------|
------------------------------------|

verse two:
-------------------------------------------------------------------|
-------------------------------------------------------------------|
-----9--------9----------9--------9--------------------------------|
---9---9----9---9------9---9----9---9------------------------------|
-7--------6-------------------0------------------------------------|
--------------------9----------------------------------------------|

pre chorus:
---------------------------------------------------------------------------
---------------------------------------------------------------------------
-9-9-9-9-9-9-9-9--11-11-11-11-11-11-11-11--9-9-9-9-9-9-9-9--8-8-8-8-8-8-8-8
-9-9-9-9-9-9-9-9--11-11-11-11-11-11-11-11--9-9-9-9-9-9-9-9--8-8-8-8-8-8-8-8
-7-7-7-7-7-7-7-7---9--9--9--9--9--9--9--9--7-7-7-7-7-7-7-7--6-6-6-6-6-6-6-6
---------------------------------------------------------------------------

chorus:
--------------------------------------------------------------------|
--------------------------------------------------------------------|
-9-9-9-9-9-9-9-9--4-4-4-4-4-4-4-4--6-6-6-6-6-6-6-6------------------|
-9-9-9-9-9-9-9-9--4-4-4-4-4-4-4-4--6-6-6-6-6-6-6-6--7-7-7-7-7-7-7-7-|
-7-7-7-7-7-7-7-7--2-2-2-2-2-2-2-2--4-4-4-4-4-4-4-4--7-7-7-7-7-7-7-7-|
----------------------------------------------------5-5-5-5-5-5-5-5-|

chorus:
--------------------------------------------------------------------|
--------------------------------------------------------------------|
-9-9-9-9-9-9-9-9--4-4-4-4-4-4-4-4--6-6-6-6-6-6-6-6------------------|
-9-9-9-9-9-9-9-9--4-4-4-4-4-4-4-4--6-6-6-6-6-6-6-6--7-7-7-7-7-7-7-7-|
-7-7-7-7-7-7-7-7--2-2-2-2-2-2-2-2--4-4-4-4-4-4-4-4--7-7-7-7-7-7-7-7-|
----------------------------------------------------5-5-5-5-5-5-5-5-|

at end of the song end on:
-----|
-1---|
-2---|
-2---|
-----|
-----|
            
Submit corrections

↑ Back to top | Tablatures and chords for acoustic guitar and electric guitar, ukulele, drums are parodies/interpretations of the original songs. You may use it for private study, scholarship, research or language learning purposes only