» » »

Hedley - Never Too Late Tabs

Artists:  A B C D E F G H I J K L M N O P Q R S T U V W X Y Z # 

Never Too Late Tabs

(ver. 2) Click to play this song!
Hedley
 Rating:
4/5 (4 votes)

 Never Too Late lessons Tabs too difficult? Try these video lessons and learn fast
 
                			     Never Too Late - Hedley - Solo

Tuning: Standard (EADGBe)

I couldn't find any tabs for the solo so I decided to learn it, hope it helps

1st Part
e|----------------------------------------------------------------------|
B|----------------------------------------------------------------------|
G|----------------------------------------------------------------------|
D|-------------------9----------------/11-9-----------------------------|
A|-----------7-9-/11---11---------7-9------11-------7-9-/11--9--7-------|
E|-------7h9------------------7h9---------------7h9----------------0----|

2nd Part
e|----------------------------------------------------------------------|
B|----------------------------------------------------------------------|
G|-----------9--------9-------------------------------------------------|
D|------9h11---9-9h11-----------------9---------------------------------|
A|-----------------------------7-9-/11---11-----------------------------|
E|----------------------0--7h9------------------------------------------|
3rd Part
e|----------------------------------------------------------------------|
B|-----7----------14-------9--------------------------------------------|
G|-----9b--7-9----16b-16---11b-11-9-------------------------------------|
D|----------------------------------------------------------------------|
A|----------------------------------------------------------------------|
E|----------------------------------------------------------------------|
not a 100% on the 3rd part yet, but it sounds close


| /  slide up
| \  slide down
| h  hammer-on
| p  pull-off
| ~  vibrato
| +  harmonic
| x  Mute note
            
Submit corrections


        Never Too Late lessons Hard to play? Try these video lessons and learn fast Never Too Late lessons
        
↑ Back to top | Tablatures and chords for acoustic guitar and electric guitar, ukulele, drums are parodies/interpretations of the original songs. You may use it for private study, scholarship, research or language learning purposes only