Home » H » Hedley »

Hedley - Johnny Falls Tabs

Artists:  A B C D E F G H I J K L M N O P Q R S T U V W X Y Z # 

Johnny Falls Tabs

(ver. 2) Click to play this song!
Hedley
 Rating:
4.3/5 (6 votes)
                Band: Hedley
This band  rocks and this song rocks so i really wanted to trab it
but this is my first tab but it sounds pretty good and i am only 13
so... here goes

Standard Tuning:EABGDe

Verse 1: part 1- 0:00

e|-----------------------------------------------------------------|
B|-----------------------------------------------------------------|
G|-----------------------------------------------------------------|
D|-----------------------------------------------------------------|
A|-3333333-1111111-----------------3333333-1111111-----------------|
E|-----------------3333333-4444444-----------------3333333-4444444-|
pm ....... ....... ....... ....... ....... ....... ....... .......

verse 1: part2- 0:14

e|-----------------------------------------|
B|-----------------------------------------|
G|-5-5--3-3------------5-5--3-3------------|
D|-5-5--3-3--5-5--6-6--5-5--3-3--5-5--6-6--|
A|-3-3--1-1--5-5--6-6--3-3--1-1--5-5--6-6--|
E|-----------3-3--4-4------------3-3--4-4--|

Chorus 1- 0:28

e|----------------------------------------------------------------------|
B|----------------------------------------------------------------------|
G|-------33333333-55555555----------55555555-33333333-------------------|
D|-888---33333333-55555555-55555555-55555555-33333333-55555555-66666666-|
A|-888---11111111-33333333-55555555-33333333-11111111-55555555-66666666-|
E|-666---------------------33333333-------------------33333333-44444444-|

Verse 2: part 1- 0:42

e|-------------------------------------------------------------------------|
B|-------------------------------------------------------------------------|
G|-------------------------------------------------------------------------|
D|-------------------------------------------------------------------------|
A|-33333333-11111111-------------------33333333-11111111-------------------|
E|-------------------33333333-44444444-------------------33333333-44444444-|
pm......... ........ ........ ........ ........ ........ ........ ........

Verse 2: part2- 0:56

e|-----------------------------------------|
B|-----------------------------------------|
G|-5-5--3-3------------5-5--3-3------------|
D|-5-5--3-3--5-5--6-6--5-5--3-3--5-5--6-6--|
A|-3-3--1-1--5-5--6-6--3-3--1-1--5-5--6-6--|
E|-----------3-3--4-4------------3-3--4-4--|

Chorus 2- 1:10

e|-------------------------------------------------------------------------|
B|-------------------------------------------------------------------------|
G|-55555555-33333333-------------------55555555-33333333-------------------|
D|-55555555-33333333-55555555-66666666-55555555-33333333-55555555-66666666-|
A|-33333333-11111111-55555555-66666666-33333333-11111111-55555555-66666666-|
E|-------------------33333333-44444444-------------------33333333-44444444-|

Interlude- 1:24



e|---------------------------------------------|
B|---------------------------------------------|
G|-88888888----------88888888-1313131313131313-| <--play 2 times
D|-88888888-88888888-88888888-1313131313131313-|
A|-66666666-88888888-66666666-1111111111111111-|
E|----------66666666---------------------------|

Solo- 1:38

e|-------------------------------------------------------------------|
B|-------------------------------------------------------------------|
G|-8-7-8-3--8-7-8-3--8-7-8-3-12-10-8-8-8-7-8-3--8-7-8-3--8-7-8-3-12~-|
D|-------------------------------------------------------------------|
A|-------------------------------------------------------------------|
E|-------------------------------------------------------------------|

1:53

e|-----------------------------------------------------|
B|-----------------------------------------------------|
G|-----------------------------------------------------| <--play 4 times
D|-----------------------------------------------------|
A|-333333333333-111111111111---------------------------|
E|---------------------------333333333333-444444444444-|
pm ............ ............ ............ ............

Chorus 3- 2:21

e|-------------------------------------------------------------------------|
B|-------------------------------------------------------------------------|
G|-55555555-33333333-------------------55555555-33333333-------------------|
D|-55555555-33333333-55555555-66666666-55555555-33333333-55555555-66666666-|
A|-33333333-11111111-55555555-66666666-33333333-11111111-55555555-66666666-|
E|-------------------33333333-44444444-------------------33333333-44444444-|

2:35

e|---------------------------------------------|
B|---------------------------------------------|
G|-88888888----------88888888-1313131313131313-| <--play 2 times
D|-88888888-88888888-88888888-1313131313131313-|
A|-66666666-88888888-66666666-1111111111111111-|
E|----------66666666---------------------------|


ending- 2:48

e|-------------------------------------|
B|-------------------------------------|
G|-8-7-8-3--8-7-8-3--8-7-8-3-12-10-8-8-| <-- play 4 times
D|-------------------------------------|
A|-------------------------------------|
E|-------------------------------------|

very end- 3:17

e|----------------------------------|
B|----------------------------------|
G|-8-8-8-8-8-8-8-8-8-8-8-8-8-8-8~~~~|
D|----------------------------------|
A|----------------------------------|
E|----------------------------------|

well thats it! hope u enjoy it and rate it! its an awesome song! 
and its pretty damn easy!
            
Submit corrections

↑ Back to top | Tablatures and chords for acoustic guitar and electric guitar, ukulele, drums are parodies/interpretations of the original songs. You may use it for private study, scholarship, research or language learning purposes only