» » »

Hedley - Gunnin Tabs

Artists:  A B C D E F G H I J K L M N O P Q R S T U V W X Y Z # 

Gunnin Tabs

(ver. 3) Click to play this song!
Hedley
 Rating:
4/5 (4 votes)

 Gunnin lessons Tabs too difficult? Try these video lessons and learn fast
 
                Intro:
e|-----------------------------------------------------------------------|
B|-----------------------------------------------------------------------|
G|-5-5555-5-5555-55-----------------5-5555-5-5555-----------------444-5--|
D|-5-5555-5-5555-55--3-3333-3-3333--5-5555-5-5555--3-3333-3-3333--444-5--|
A|-3-3333-3-3333-33--3-3333-3-3333--3-3333-3-3333--3-3333-3-3333--222-3--|
E|-------------------1-1111-1-1111-----------------1-1111-1-1111---------|      

Verse:
e|-----------------------------------------------------------------------|
B|-----------------------------------------------------------------------|
G|-5-5555-5-5555-55-----------------5-5555-5-5555-----------------444-5--|
D|-5-5555-5-5555-55--3-3333-3-3333--5-5555-5-5555--3-3333-3-3333--444-5--|
A|-3-3333-3-3333-33--3-3333-3-3333--3-3333-3-3333--3-3333-3-3333--222-3--|
E|-------------------1-1111-1-1111-----------------1-1111-1-1111---------|      

Pre Chorus:
e|---------------------------------------------------------------|
B|---------------------------------------------------------------|
G|--44444444-------------5555555555555555------------------------|
D|--44444444--555555555--5555555555555555------------------------|
A|--22222222--555555555--3333333333333333------------------------|
E|------------333333333------------------------------------------|

Chorus:
e|---------------------------------------------------------------|
B|---------------------------------------------------------------|
G|--555555555555--------------------------------444-5------------|
D|--555555555555--5555555555555----3333333333---444-5------------|  X2
A|--333333333333--5555555555555----3333333333---222-3------------|
E|----------------3333333333333----1111111111--------------------|

- Interlude is just the verse played three times
- Then Pre-Chorus played three times
- Finally the Chorus then verse

Enjoy
            
Submit corrections


        Gunnin lessons Hard to play? Try these video lessons and learn fast Gunnin lessons
        
↑ Back to top | Tablatures and chords for acoustic guitar and electric guitar, ukulele, drums are parodies/interpretations of the original songs. You may use it for private study, scholarship, research or language learning purposes only