» » »

Hedley - Dear Blank Tabs

Artists:  A B C D E F G H I J K L M N O P Q R S T U V W X Y Z # 

Dear Blank Tabs

(ver. 2) Click to play this song!
Hedley
 Rating:
4/5 (4 votes)

 Dear Blank lessons Tabs too difficult? Try these video lessons and learn fast
 
                Intro:

Guitar 1
e|------|------------|------------------------------------------------.-------6~-------------|
B|----.-|-----.------|---6-4-6-4-6-/8-6-4~--4-6-4-6-/8-6-4-6-4-6-4-6-/8---9~------8~--6-4~---|
G|---88-|---888------|-----------------------------------------------------------------------|
D|-x----|-x-------7x-|-x---------------------------------------------------------------------| 2x
A|-x-66-|-x-666------|-x---------------------------------------------------------------------|
D|-x----|-x----------|-x---------------------------------------------------------------------|

Guitar 2
e|-----------------------------------------|-------------------------------------------------|
B|-----------------------------------------|-------------------------------------------------|
G|----------(silence)----------------------|-------------------------------------------------|
D|-----------------------------------------|--------------3-3-3-3-3-3-3-x-8~-8-8-8-8-8-8-8-8-| 2x
A|-----------------------------------------|--------------3-3-3-3-3-3-3-x-8~-8-8-8-8-8-8-8-8-|
D|-----------------------------------------|--------------3-3-3-3-3-3-3-x-8~-8-8-8-8-8-8-8-8-|

Verse:

Guitar 1 (no guitar 2)    
e|---------------------------------------------------|    
B|---------------------------------------------------|    Those are ones, not elevens 
G|--.----.----.----.--------------------------.------|    
D|-11---33---66---88---888-11---33---66---88~----888-| 2x 
A|-11---33---66---88---888-11---33---66---88~----888-|    
D|-11---33---66---88---888-11---33---66---88~----888-|
                                
Verse cont'd                                          +
e|--------------------------------------------------------------------------| To play the part at "+",
B|----------------------------------------------------444-------------------| put your middle finger on 
G|--------------------------------------------------------------------------| B4 and your pinky on A6
D|-1~-------33-------66-------88---888-1~-------33--------66-------888~-888-|
A|-1~111111-33333333-66666666-88888888-1~111111-33333-666-66666666-888~8888-|
D|-1~111111-33333333-66666666-88888888-1~111111-33333-xxx-66666666-888~8888-|
     ******   ******   ******   ***      ******   ***       ******     *
Prechorus:

Guitar 1                                                                Guitar 2
e|--------4-------4-------4-------4-------3-------3-----6-6-6-6-6-6-6-6-||----------------------------|
B|------4---4---4---4---4---4---4---4---4---4---4---4-3-----------------||----------------------------|
G|----6-------6-------5-------5-------3-------3-------------------------||---------------------333333-|
D|----------------------------------------------------------------------||-6-----------5-----33333333-|
A|----------------------------------------------------------------------||-4--x8-6--x8-3--x8-11111111-|
D|----------------------------------------------------------------------||-------6--------------------|
                                                                           *     *           ****
Chorus:

Guitar 1
e|-------------------------------------------------------------------------|
B|-------------------------------------------------------------------------| 
G|------------------------------------------5------------------------------| 
D|-1-----6-----8---------1-----6-----8------5--x8-6-----3------5~-6-----8~-| 
A|-1--x8-6--x8-8--x14----1--x8-6--x8-8--x16-3-----6--x8-3--x14-6~-6--x8-8~-| 
D|-1-----6-----8------13\1-----6-----8------------6-----3------5~-6-----8~-|

Guitar 2
e|----------------------------------------------------------------------------------------| Not sure if
B|-8-----9-----11------8------9-----11----------------------------------------------------| that last note
G|-8--x8-8--x8-10--x16-8--x16-8--x8-10--x16-/5~-555-7~-8~--10~-12~----14~--10~--13-----7~-| is actually
D|-8-----6-----8-------8------6-----8-----------------------------------------------x8----| there but it
A|------------------------------------------/3~-333-5~-6~---8~-10~----12~---8~--11-----5~-| sounds correct
D|----------------------------------------------------------------------------------------| 

Preverse:

Guitar 1
e|----------------------------------------------.-------6~-------------|
B|-6-4-6-4-6-/8-6-4~--4-6-4-6-/8-6-4-6-4-6-4-6-/8---9~------8~--6-4~---|
G|---------------------------------------------------------------------|
D|---------------------------------------------------------------------| 2x
A|---------------------------------------------------------------------|
D|---------------------------------------------------------------------|

Guitar 2
e|-----------------------------------------|
B|-----------------------------------------|
G|-----------------------------------------|
D|-88--888--8-55--555--5-------------------|
A|-66--666--6-33--333--3-3--x6-x-8~-8--x8--|
D|-----------------------3-----x-8~-8------|

Repeat:
Verse - Guitar 2 plays a small fill

Guitar 2 (1:32), with some phaser/delay effect
e|---------------------------------------------|
B|-8-------------------------------------------|
G|-8--x64 (or however many times)--------------|
D|---------------------------------------------|
A|---------------------------------------------|
D|---------------------------------------------|

Repeat:
Prechorus
Chorus

Bridge:     

Guitar 1                                     |========Downstrokes========|           
e|------------------------|---1.---|-----2.----------------------------------------||Those x's are really
B|------------------------|--------|---.-----------------------------8~8~8~8~------|| natural harmonics
G|-4-------------66--66---|-33-----|88-8--8~--8~---------8~--8~--8~--8~8~8~8~------|| but I can't figure
D|-4-----4-----6666666666-|-333333-|8888-88~--8~--8~-----5~--8~------8~8~8~8~--xxx-|| out the fret they're
A|-2--x8-4--x8-4444444444-|-111111-|6666-66~--6~--8~-----6~--6~--6~------------xxx-|| played on! They sound
D|-------4----------------|--------|----------6~--8~-----5~--6~--8~------------xxx-|| like Eb's though
   *     *     **  **  **     *****   *  *
                                     Keep pinky finger on G8 throughout^

Guitar 2 (not 100% accurate, very hard to hear)                     
e|-------2-----2---------2-----2---------1-----1-----|-----1-6-6---6-9-|---6---6---6-6-6-||
B|-----4-----4-----4---4-----4-----4---4-----4-----4-|---4-------6-----|-----------------||
G|---4-----4-----4---4-----4-----4---3-----3-----3---|-3---------------|-3---3---3-------||
D|---------------------------------------------------|-----------------|-----------------||
A|---------------------------------------------------|-----------------|-----------------||
D|---------------------------------------------------|--------1.-------|--------2.-------||

Repeat: 
Chorus - start on the 2nd chord (666xxx and xx689x, G# chords)

Outro:

Guitar 1
e|----------------------------------------------.-------6~-------------|
B|-6-4-6-4-6-/8-6-4~--4-6-4-6-/8-6-4-6-4-6-4-6-/8---9~------8~--6-4~---| 3x, on the third time
G|---------------------------------------------------------------------| stop playing at the
D|----------------------------------------------------$----------------| $ symbol
A|---------------------------------------------------------------------|
D|---------------------------------------------------------------------|

Guitar 2
e|------------------------------------------------------------------------------------||
B|------------------------------------------------------------------------------------||
G|-8-----5555-3333-------------8-----5555-3333-------------8-----5555-3333-------6~---||
D|-8--x8-5555-3333-3-----6-----8--x8-5555-3333-3-----6-----8--x8-5555-3333-3-----6~---||
A|-6-----3333-1111-3--x8-6--x8-6-----3333-1111-3--x8-6--x8-6-----3333-1111-3--x8-4~---||
D|-----------------3-----6---------------------3-----6---------------------3----------||            
Submit corrections


        Dear Blank lessons Hard to play? Try these video lessons and learn fast Dear Blank lessons
        
↑ Back to top | Tablatures and chords for acoustic guitar and electric guitar, ukulele, drums are parodies/interpretations of the original songs. You may use it for private study, scholarship, research or language learning purposes only