» » »

Hedley - Beautiful Tabs

Artists:  A B C D E F G H I J K L M N O P Q R S T U V W X Y Z # 

Beautiful Tabs

(ver. 1) Click to play this song!
Hedley
 Rating:
4/5 (9 votes)

 Beautiful lessons Tabs too difficult? Try these video lessons and learn fast
 
                -----------------------------------------------------------------------------
-----------------------------------------------------------------------------


Tuning: Half-step down

They came to our town last week and played a new song called beautiful
and I looked everywhere for the tab but couldn't find it,
so I tabbed it myself. This is my first tab and I've always
wanted to do one, so don't hate if it's not perfect lol. And,
this is only the parts Jacob plays on his guitar, I might tab Dave's part later though. 

Intro and verse
d#|-----------------------3---------3-------------|           
A#|---3-------3-------3---------3---------3-------|          
F#|---------0-------0---0-----0---0-----0-------0-| x7         
C#|-----------------------------------------0h2---|          
G#|-----0h2-----2h3---------2---------0-----------|        
D#|-3---------------------------------------------|

Lyrics:
City cold, moonlight bright
Mountains old, I watch the water
Someones old friend, someones lover
Someones sister, someones daughter

Chorus
d#|---------------------------------|           
A#|---3---3---3---3---3---3---3---3-|          
F#|---------------------------------| x2          
C#|---------------------------------|          
G#|-3---3---3---3-------------------|        
D#|-----------------3---3---3---3---|

Lyrics:
Isn't she beautiful
Isn't she beautiful

Chorus
d#|-------------------------------------|           
A#|-----3-----3-----3-----3-----3-----3-|          
F#|---0-----0-----0-----0-----0-----0---| x2          
C#|-------------------------------------|          
G#|-3-----3-----2-----2-----0-----0-----|        
D#|-------------------------------------|

Lyrics:
Isn't she everything you need
Isn't she everything you need


Then after he says "yeah" you go back to the intro/verse

d#|-----------------------3---------3-------------|           
A#|---3-------3-------3---------3---------3-------|          
F#|---------0-------0---0-----0---0-----0-------0-| x7         
C#|-----------------------------------------0h2---|          
G#|-----0h2-----2h3---------2---------0-----------|        
D#|-3---------------------------------------------|

Lyrics:
Child of earth with gentle hands
Wind in hair and toes in sand
Make you laugh, she'll make you listen
Nothing's broke and nothing's missin'

Chorus
d#|---------------------------------|           
A#|---3---3---3---3---3---3---3---3-|          
F#|---------------------------------| x2          
C#|---------------------------------|          
G#|-3---3---3---3-------------------|        
D#|-----------------3---3---3---3---|

Lyrics:
Isn't she beautiful
Isn't she beautiful

Chorus
d#|-------------------------------------|           
A#|-----3-----3-----3-----3-----3-----3-|          
F#|---0-----0-----0-----0-----0-----0---| x2          
C#|-------------------------------------|          
G#|-3-----3-----2-----2-----0-----0-----|        
D#|-------------------------------------|

Lyrics:
Isn't she everything you need
Isn't she everything you need


Next he starts strumming 2 chords:

   an A7sus4           and a G
d#|-----3-----|    d#|-----3-----|           
A#|-----3-----|    A#|-----3-----|         
F#|-----0-----|    F#|-----0-----|       
C#|-----2-----|    C#|-----2-----|       
G#|-----0-----|    G#|-----0-----|     
D#|-----x-----|    D#|-----x-----|

at the very end of the 2nd chorus he strums the A7sus4 chord,
then right after he says "yeah" he switches to the G chord while
he displays his vocal talents for a bit, then we come back to
the chorus

 G
Isn't she beautiful
 G
Isn't she beautiful
 G                            A7sus4
Isn't she everything you need
 A7sus4
Isn't she everything you need


Then after he says "yeah" you go back to the intro/verse

d#|-----------------------3---------3-------------|           
A#|---3-------3-------3---------3---------3-------|          
F#|---------0-------0---0-----0---0-----0-------0-| x2         
C#|-----------------------------------------0h2---|          
G#|-----0h2-----2h3---------2---------0-----------|        
D#|-3---------------------------------------------|

Then you end with a G chord


************************************

| /   slide up
| \   slide down
| h   hammer-on
| p   pull-off
| ~   vibrato
| +   harmonic
| x   Mute note
| b   Bend
| pb  Pre-bend
| br  Bend release
| pbr Pre-bend release
| brb Bend release bend

************************************
            
Submit corrections


        Beautiful lessons Hard to play? Try these video lessons and learn fast Beautiful lessons
        
↑ Back to top | Tablatures and chords for acoustic guitar and electric guitar, ukulele, drums are parodies/interpretations of the original songs. You may use it for private study, scholarship, research or language learning purposes only