Home » H » Heat »

Heat - Were Gonna Make It To The End Tabs

Artists:  A B C D E F G H I J K L M N O P Q R S T U V W X Y Z # 

Were Gonna Make It To The End Tabs

(ver. 1) Click to play this song!
Heat
E|------------------------------------------------------7-----7v--|
B|----------------------------------------------------------------|
G|--6v--7v------------------6b7r6b7r6b7r6-------------------------|
D|----------9v--------7--------------------7--7/9--7h9-----9------|
A|-----------------9-----9----------------------------------------|
E|----------------------------------------------------------------|

E|------------------------------------------------------|
B|-------------10---------------------------------------|
G|--9b11r9b11------11p9p7-----9b11r9b11--11p9p7-----9v--|
D|-------------------------9---------------------9------|
A|------------------------------------------------------|
E|------------------------------------------------------|

E|-----------------------------------------------------------------|
B|--10b12r10b12r10b12r10b12r10b12r10--12--10----------12-----------|
G|--------------------------------------------11--10------9h10h11--|
D|-----------------------------------------------------------------|
A|-----------------------------------------------------------------|
E|-----------------------------------------------------------------|

E|-----------------------------------------12--14--12------|
B|----------------------------------15b17--------------15--|
G|--11p10p9/7-----9p7--------------------------------------|
D|-------------9-------9--7--9v----------------------------|
A|---------------------------------------------------------|
E|---------------------------------------------------------|

E|--9b10r9p7---------9h10p9/5/9/7v-------------------------------17v--|
B|------------10--7------------------------------------------15-------|
G|---------------------------------------------11h12--12h14-----------|
D|-----------------------------------------12-------------------------|
A|-------------------------------------14-----------------------------|
E|--------------------------------------------------------------------|

E|--17--15--14---------15------------------------|
B|--------------17b19------17b19--21p19p17--17v--|
G|-----------------------------------------------|
D|-----------------------------------------------|
A|-----------------------------------------------|
E|-----------------------------------------------|


E|---------------------------------------12h14h15/17v--|
B|-----------------------------12h14h15----------------|
G|-------------------11h12h14--------------------------|
D|---------11h12h14------------------------------------|
A|--12h14----------------------------------------------|
E|-----------------------------------------------------|            
Submit corrections

↑ Back to top | Tablatures and chords for acoustic guitar and electric guitar, ukulele, drums are parodies/interpretations of the original songs. You may use it for private study, scholarship, research or language learning purposes only