Home » H » Heart »

Heart - Barracuda Bass

Artists:  A B C D E F G H I J K L M N O P Q R S T U V W X Y Z # 

Barracuda Bass

(ver. 1) Click to play this song!
Heart
Heart - Barracuda

note
thairs is ~ means let ring

Intro 1 guitar only

Intro 2 Riff 1
--------------------------------------------------------------------------|
--------------------------------------------------------------------------|
--------------------------------------------------------------------------|
-5(s)-0-0-0-0-0-0-0-0-0-0-0-0-0-0-0-0-0-0-0-0-0-2-3-----------------------|

Riff 2 2xs
--------------------------------------------------------------------------|
--------------------------------------------------------------------------|
--------------------------------------------------------------------------|
-0-0-0-0-0-0-0-0-0-0-0-0-0-0-0-0-0-0-0-0-2-3-3-3-3-3-3-3-3----------------|

Verse 2xs
--------------------------------------------------------------------------|
-----------------------------------------------10~------------------------|
--------------------------------------------------------------------------|
-0-0-0-0-0-0-0-0-0-0-0-0-0-0-0-0--0-0-0-0-0-0-----------------------------|

--------------------------------------------------------------------------|
-10-9-7-------------------------------------------------------------------|
--------10----------------------------------------------------------------|
-----------0-0-0-0-0-0-0-0-0-0-0-0-0-0-0----------------------------------|

Chorus 1
--------------------------------------------------------------------------|
-10-9-7----------2--------------------------------------------------------|
-------------3-5---5-3----------------------------------------------------|
-------0-0-0-----------5-3-0-0-0------------------------------------------|

----------12---------------12---------------------------------------------|
----12-14----14-----14-14-----14------------------------------------------|
-5~-------------12~--------------12---------------------------------------|
--------------------------------------------------------------------------|

Riff 2 2xs
Verse

Chorus 2
--------------------------------------------------------------------------|
-10-9-7-----------2-------------------------------------------------------|
--------------3-5---5-3---------------------------------------------------|
--------0-0-0-----------5-3-0-0-0-----------------------------------------|

-----14-12----------------------------------------------------------------|
-----------14-12----------------------------------------------------------|
-5*--------------12-------------------------------------------------------|
--------------------------------------------------------------------------|

Riff 3
--------------------------------------------------------------------------|
--------------------------------------------------------------------------|
----------------------------------------3(h)5-----------------------------|
-0-0-0-0-0-0-0-0-0-0-0-0-0-0-0-0--3(h)5-----------------------------------|

Bridge
--------------------------------------------------------------------------|
-10-9-7-------------------------------------------------------------------|
--------10-7-10-9-7-------9-10-9-10-9-7-----------------------------------|
--------------------5-7-9-------------------------------------------------|

Riff 3
Bridge

Riff 4
--------------------------------------------------------------------------|
--------------------------------------------------------------------------|
--------------------------------------------------------------------------|
-0-0-0-0-0-0-0-0-0-0-0-0-0-0-0--2-3-5-------------------------------------|

Bridge
Riff 4
Bridge
Riff 4

Chorus 3
--------------------------------------------------------------------------|
-10-9-7-----------2-------------------------------------------------------|
--------------3-5---5-3---------------------------------------------------|
--------0-0-0------------5-3-0-0-0----------------------------------------|

----14-12-----------------------------------------------------------------|
----------14-12-----------------------------------------------------------|
-5*-------------15-14-12--------------------------------------------------|
--------------------------------------------------------------------------|

Riff 5  open E FAST
--------------------------------------------------------------------------|
--------------------------------------------------------------------------|
--------------------------------------------------------------------------|
-0-0-0-0-0-0-0-0-0-0-0-0-0-0-0-0-0-0-0-0-0-0-0-0-0-0-0-0-0-0-0-0-0-0-0-0--| etc.

Riff 6 8xs
--------------------------------------------------------------------------|
--------------------------------------------------------------------------|
-----------5(h)7(p)5------------------------------------------------------|
-0-0-0-0-0-----------8----------------------------------------------------|

Riff 7 2 xs
--------------------------------------------------------------------------|
--------------------------------------------------------------------------|
-----------------2(h)3(p)2(h)3--------------------------------------------|
-0-0-0-0-0-0-0------------------------------------------------------------|

Riff 8 3x's
--------------------------------------------------------------------------|
-------2------------------------------------------------------------------|
---2-5---5---2-3-2-3------------------------------------------------------|
-0---------0--------------------------------------------------------------|

 do variations

Riff 9 2x's
--------------------------------------------------------------------------|
-------2-----2------------------------------------------------------------|
---2-5-----5---5-3--------------------------------------------------------|
-0-------0----------------------------------------------------------------|

 very fast
-------------------------------------------------------------------------|
-------2-----------------------------------------------------------------|
---2-5---5-3-2-----------------------------------------------------------|
-0-------------5-3-5-3-0-------------------------------------------------|

Ending
Riff 4 5xs
            
Submit corrections

↑ Back to top | Tablatures and chords for acoustic guitar and electric guitar, ukulele, drums are parodies/interpretations of the original songs. You may use it for private study, scholarship, research or language learning purposes only