» » »

Headstones - Smile And Wave Tabs

Artists:  A B C D E F G H I J K L M N O P Q R S T U V W X Y Z # 

Smile And Wave Tabs

(ver. 1) Click to play this song!
Headstones
 Rating:
4.2/5 (30 votes)

 Smile And Wave lessons Tabs too difficult? Try these video lessons and learn fast
 
                dropped D tuning

|-------ring------|
|--3--------------|
|--2--------------|
|--0--------------|
|--0--------------|
|--0--------------|

repeat
|----------------------------------------|
|--------3--------------------3----------|
|-----2-------------------0--------------|
|--0-------------------------------------|
|-------------3--------------------------|
|----------------------------------------|
Billy's got a Phd and Sara she's a teacher, they love to rock and roll
And blow their brains out on the weekend
Together they have built a world, a lot of it is real
And we are here to ease them through the parts they can't conceal


kick in distorsion-repeat
|----------------------------------------------------------|
|----------------------------------------------------------|
|----------------------------------------------------------|
|---0------5------7------5------0------5------7------5-----|
|---0------5------7------5------0------3------5------3-----|
|---0------5------7------5------0--------------------------|

I smile and wave (x4)

end with
|------------------------------------------------|
|------------------------------------------------|
|------------------------------------------------|
|---------5------5------5------5------5------5---|
|---------3------3------3------3------3------3---|
|------------------------------------------------|

clean - repeat
|----------------------------------------|
|--------3--------------------3----------|
|-----2-------------------0--------------|
|--0-------------------------------------|
|-------------3--------------------------|
|----------------------------------------|
Now their swearing up and down, they're coming off so clean
Surely they will fall to their doom

lead lick
|------------------------|
|--3h5p3---5/7-----------|
|------------------------|
|------------------------|
|------------------------|
|------------------------|

Another inch closer, closer to the
Railing
And nobody here is ever fooled


kick in distorsion-repeat
|----------------------------------------------------------|
|----------------------------------------------------------|
|----------------------------------------------------------|
|---0------5------7------5------0------5------7------5-----|
|---0------5------7------5------0------3------5------3-----|
|---0------5------7------5------0--------------------------|

I smile and wave, yeah! (x4)

end with
|------------------------------------------------|
|------------------------------------------------|
|------------------------------------------------|
|---------5------5------5------5------5------5---|
|---------3------3------3------3------3------3---|
|------------------------------------------------|

Fast part
|----------------------------------------------------------|
|----------------------------------------------------------|
|----------------------------------------------------------|
|----------------------------------------------------------|
|--------------3--3---5-------3--5-------------------------|
|---0------0--------------0--------------------------------|
|
|----------------------------------------------------------|
|----------------------------------------------------------|
|----------------------------------------------------------|
|----------------------------------------------------------|
|----------------------------------------------------------|
|---5--3--0--5--3--0--5--3--0--5--3--0--5--3--0--5--3--0---|

play whole section a few times

And I wave...(x4)

|-------ring------|
|--3--------------|
|--2--------------|
|--0--------------|
|--0--------------|
|--0--------------|

guitar solo
|-----------------------------------------------|
|---------------------------------------------13|
|--14---12--12--14------------------12-14--14---|
|------------------12---12-14---12--------------|
|-----------------------------------------------|
|-----------------------------------------------|

|-----------------------------------------------|
|-----------------------------------------------|
|-----------------------------------------------|
|--10-12-12--7-10-10--7-9-9--5-7-7--10-12-12--7-|
|-----------------------------------------------|
|-----------------------------------------------|

|---------------------------|
|---------------------------|
|---------------------------|
|--10-10---14-14---16-16----|
|---------------------------|
|---------------------------|

picked out chords
|----------------------------------------------------------|
|-------3-----------------1-----------0--------------------|
|----2---------------2-------------2-------------0---2-----|
|-0-------------0--------------0-------------0-------------|
|----------------------------------------------------------|
|----------------------------------------------------------|

|--3-----3----3-----3-----3------3----|
|----1-----1----1-----1-----1---------|
|------2-----2----2-----2-----2-------|
|-------------------------------------|
|-------------------------------------|
|-------------------------------------|
|
|--2-----2----2-----2-----2------2----|
|----1-----1----1-----1-----1---------|
|------2-----2----2-----2-----2-------|
|-------------------------------------|
|-------------------------------------|
|-------------------------------------|



|----------------------------------------|
|--------3--------------------3----------|
|-----2-------------------0--------------|
|--0-------------------------------------|
|-------------3--------------------------|
|----------------------------------------|

A lot of rain and fancy coffees, best suited couple I know

kick in distorsion-repeat
|----------------------------------------------------------|
|----------------------------------------------------------|
|----------------------------------------------------------|
|---0------5------7------5------0------5------7------5-----|
|---0------5------7------5------0------3------5------3-----|
|---0------5------7------5------0--------------------------|

They spend everything that they've ever harnessed
Now tell me how is your happy home
I smile and wave, yeah! (x4)

Fast part
|----------------------------------------------------------|
|----------------------------------------------------------|
|----------------------------------------------------------|
|----------------------------------------------------------|
|--------------3--3---5-------3--5-------------------------|
|---0------0--------------0--------------------------------|
|
|----------------------------------------------------------|
|----------------------------------------------------------|
|----------------------------------------------------------|
|----------------------------------------------------------|
|----------------------------------------------------------|
|---5--3--0--5--3--0--5--3--0--5--3--0--5--3--0--5--3--0---|

And I wave... And I'm smiling
And I wave...(x3)
Yeahhhhh!

            
Submit corrections


        Smile And Wave lessons Hard to play? Try these video lessons and learn fast Smile And Wave lessons
        
↑ Back to top | Tablatures and chords for acoustic guitar and electric guitar, ukulele, drums are parodies/interpretations of the original songs. You may use it for private study, scholarship, research or language learning purposes only