» » »

Hay Colin - Dont Wait Up Tabs

Artists:  A B C D E F G H I J K L M N O P Q R S T U V W X Y Z # 

Dont Wait Up Tabs

(ver. 1) Click to play this song!
Hay Colin
 Rating:
4/5 (4 votes)

 Dont Wait Up lessons Tabs too difficult? Try these video lessons and learn fast
 
                Colin Hay - Don´t Wait Up


"first" and " second" means the endings after repeat. if u want to understand my tabs, u
to have the song in your ear and mind, this is for good listeners and a hard work, and
to play :) .


E---------------------------------0-2-5-------5--2----2-3--2----------------------|
B-----------------3---3--3-2------3-3-0-------0--0----0-0--3-3---3----------------|
G--0----0--0------0--2-2-2-2----------0-------0--0-----------2-2-----2^0-0--------|
D--7----7--4------4--4-----------------------------------------0-----0--4-0-2-0-0-|
A--5---5---2----2----0---------------------------------------------------------4--|
D-5---5----2--2------0----------------5---5-5----2--2------0-0-0-0----------------|
                      first     second   third repeating

E  ------------------------5-------------------2----2-2-0------------2-2-0----|
B--3----3--2-3-2-3-2-3-2-3-3-3-3-3-3-3-3---3---3----3-3-2-3-2---or---3-3-2----|
G--4----4--2-2-2-2-2-2-2-2-2-2-2-2-0-0-4---2---0---0------4-2-----------------|
D--4---4---------------------------0---0--------------------------------------|
A--2--2----0-- 0--------------------------------------0--------------0--------|
D------------------5---5---4---4---5---5---4---2--2---first----------second---|


thats the main thing. Be sure to do little strums between every chords and interprete it
own individual way for the special feeling... u just can´t play it exactly like
thats not what this song should be all about...dont just play the song, be a medium for 
transport it from the paper to reality.
            
Submit corrections


        Dont Wait Up lessons Hard to play? Try these video lessons and learn fast Dont Wait Up lessons
        
↑ Back to top | Tablatures and chords for acoustic guitar and electric guitar, ukulele, drums are parodies/interpretations of the original songs. You may use it for private study, scholarship, research or language learning purposes only