Home » H » Hawkwind »

Hawkwind - Hassan-I Sabbah Tabs

Artists:  A B C D E F G H I J K L M N O P Q R S T U V W X Y Z # 

Hassan-I Sabbah Tabs

(ver. 1) Click to play this song!
Hawkwind
 Rating:
2.5/5 (28 votes)
                Tuning: Standard


e|---------------------------------------------------------------------------|
B|---------------------------------------------------------------------------|
G|---------------------------------------------------------------------------|
D|---------------------------------------------------------------------------|
A|-8-7-8-7-8-7-8-5---8-7-8-7-8-7-8-10-10b--8-7-8-7-8-7-8-5-5-7-8-7-6-7-------|
E|---------------------------------------------------------------------------|


e|---------------------------------------------------------------------------|
B|---------------------------------------------------------------------------|
G|---------------------------------------------------------------------------|
D|-9-7-5-7-5-2-3-5-7-----8-10-7-9-5-7-4-5------------------------------------|
A|----------------------------------------7----------------------------------|
E|---------------------------------------------------------------------------|

e|---------------------------------------------------------------------------|
B|---------------------------------------------------------------------------|
G|-7\9-9-9-9-11-9-7----------------------------------------------------------|
D|-7\9-9-9-9-11-9-7----------------------------------------------------------|
A|-5\7-7-7-7-9--7-5----------------------------------------------------------|
E|---------------------------------------------------------------------------|

            
Submit corrections

↑ Back to top | Tablatures and chords for acoustic guitar and electric guitar, ukulele, drums are parodies/interpretations of the original songs. You may use it for private study, scholarship, research or language learning purposes only