Home » H » Hawkwind »

Hawkwind - Motorhead Bass

Artists:  A B C D E F G H I J K L M N O P Q R S T U V W X Y Z # 

Motorhead Bass

(ver. 1) Click to play this song!
Hawkwind
 Rating:
4/5 (4 votes)
                
Motorhead-Hawkwind


Tuning:Standard
Play with a plectrum and rickenbacker for authenticity
Verse
G|-------------------------------------------------|
D|-------------------------------------------------|
A|----7-----7------7-------7----5-5-6---7----------|
E|-0-----0-----0------0-0-----0-------0------------|
Chorus
G|-------------------------------------------------|
D|-5-5-5-4--2--22-22-------------------------------| x2
A|-3-3-3-2--0--00-00-------------------------------|
E|-------------------------------------------------|
I'm not quite sure how many times these chords are picked,
just play what feels right
G|-------------------------------------------------|
D|-5555555-4444444---------------------------------|
A|-3333333-2222222---------------------------------|
E|-------------------------------------------------|
            
Submit corrections

↑ Back to top | Tablatures and chords for acoustic guitar and electric guitar, ukulele, drums are parodies/interpretations of the original songs. You may use it for private study, scholarship, research or language learning purposes only