Home » H » Hawkwind »

Hawkwind - Children Of The Sun Tabs

Artists:  A B C D E F G H I J K L M N O P Q R S T U V W X Y Z # 

Children Of The Sun Tabs

(ver. 1) Click to play this song!
Hawkwind
   D D U D     D D             D D U      D      E  G        A          D E
e|-2-2-2-2-H3--2-0-H2----------0-0-0------0---------------------------------|
B|-3-3-3-3-----3-3-------------0-0-0------0---------------------------------|
G|-2-2-2-2-----2-2-------------0-0-0------0--x3-----------------------------|
D|-0-0-0-0-----0-0-------------2-2-2------2-----999\12-12-12\14-14-14---7\99|
A|-0-0-0-0-----0-0------2------2-2-2---H2-2-----777\10-10-10\12-12-12---5\77|
E|--------------------3---3--0-0-0-0------------000-0--0---0--0--0--0---0-00|

 
  Verse Power Chords Variation Repeats throughout song
  when playing this sounds cool to hit the open E string throughout.  


   D   E E D   E G   A     D   E E D   E A   G   
e|---------------------------------------------------------------------------|
B|---------------------------------------------------------------------------|
G|---------------------------------------------------------------------------|
D|-7-\-9-9-7-\-9-12--14----7-\-9-9-7-\-9-------------------------------------|
A|-5-\-7-7-5-\-7-10--12----5-\-7-7-5-\-7-7---5-------------------------------|
E|-0---0-0-0---0--0---0----0---0-0-0---0-5---3-------------------------------|

Children of the Sun
===================

Intro
D  -  G  -  Em
D  -  G  -  Em
D  -  G  -  Em
E  \  G  \  A  \  D  \  E

verse

D    \     E E        D \ E      G  A    D  \ E E     D   \   E     G  A

D    \   E E    D \ E        G   A    D  \ E E     D   \   E     G  A 
The golden age of the future comes

D    \  E E     D \ E           G  A    D  \ E E     D   \   E     G  A
That which was dreamed of in the past

D    \     E E          D \ E    G  A    D  \ E E     D   \   E     G  A    
Where freedom reigns on minds of peace

D    \     E E       D \ E  G  A    D  \ E     D   \   E E     G  A      
Minds rich in wisdom to the last

D    \     E E      D \ E  G  A    D  \ E     D   \   E E     G  A
We are the children of the sun

D    \     E E  D \ E  G  A    D  \ E     D   \   E E     G  A      
And this is our inheritance

D   \  E E     D \ E     G  A    D  \ E     D   \   E E     G  A    
No longer chaos and confusion

D   \  E E             D \ E       G  A    D  \ E E     D   \   E     G  A     
But love and laughter, song and dance

Repeat and fade x 19 
D   \  E E             D \ E       G  A    D  \ E E     D   \   E     G  A X 19            
Submit corrections

↑ Back to top | Tablatures and chords for acoustic guitar and electric guitar, ukulele, drums are parodies/interpretations of the original songs. You may use it for private study, scholarship, research or language learning purposes only