» » »

Hawk Nelson - Something On My Mind Tabs

Artists:  A B C D E F G H I J K L M N O P Q R S T U V W X Y Z # 

Something On My Mind Tabs

(ver. 1) Click to play this song!
Hawk Nelson
 Rating:
4/5 (4 votes)

 Something On My Mind lessons Tabs too difficult? Try these video lessons and learn fast
 
                Hawk Nelson
"Something On My Mind"
Standard Tuning

Intro:
E-------------------------------------------------------------------------------|
B-------------------------------------------------------------------------------|
G-4h5555555-4h5-4---------------10-10-10-10-10-10-10-9h10-9---------------------|
D-----------------7777777-6h7-6-----------------------------9999999-8h9---------|
A-------------------------------------------------------------------------------|
E-------------------------------------------------------------------------------|

Verses and Chorus: (they are all played to this power chord progression)
E-------------------------------------------------------------------------------|
B-------------------------------------------------------------------------------|
G-5---------------------------10------------------------------------------------|
D-5-------------7-------------10--------10--------------------------------------|
A-3-------------7-------------8---------10--------------------------------------|
E---------------5-----------------------8---------------------------------------|
If you listen to the song, you can get the strum pattern down. It's easy.

Solo:
E----------------------------------------------------------------------------|
B--------5---------------------------------5--------------------7-7-7--7-----|
G----4-5---7-5-4-5--5-4---4-7-5h4------4-5---7-5-4-7-54---5-5h4-------5--5---|
D--5--------------------5---------5--5-----------------5---------------------|
A----------------------------------------------------------------------------|
E----------------------------------------------------------------------------|

E-----------------------------------------------------------------------------|
B--------5----------------7-7-7-5h7-5---------5----------------5--5--5--6h8-6-|
G----4-5---7-5-4-5--5-5h4-----------------4-4---7-5-4-5----4-5--75-75--7------|
D--5------------------------------------5----------------5--------------------|
A-----------------------------------------------------------------------------|
E-----------------------------------------------------------------------------|

E-------------------|
B-5----5----5-------|
G--7-5--7-5---7-5---|
D-------------------|
A-------------------|
E-------------------|

Ending
E----------------------------------------------------------------------------|
B------------------------------5---------------------------------------------|
G-55-55-55-----------55-55-55----7-4-5---------------------------------------|
D-55-55-55-----------55-55-55------------------------------------------------|
A-33-33-33------3-5--33-33-33------------------------------------------------|
E-----------3h5--------------------------------------------------------------|

This is off their new album "Smile, It's the End of the World"  There is some great 
on it.  I haven't even finished listening to it, but I had to stop and tab this one out.  
catchy and fairly simple.
            
Submit corrections


        Something On My Mind lessons Hard to play? Try these video lessons and learn fast Something On My Mind lessons
        
↑ Back to top | Tablatures and chords for acoustic guitar and electric guitar, ukulele, drums are parodies/interpretations of the original songs. You may use it for private study, scholarship, research or language learning purposes only