» » »

Have Mercy - Lets Talk About Your Hair Tabs

Artists:  A B C D E F G H I J K L M N O P Q R S T U V W X Y Z # 

Lets Talk About Your Hair Tabs

(ver. 1) Click to play this song!
Have Mercy
 Rating:
4.3/5 (12 votes)

 Lets Talk About Your Hair  lessons Tabs too difficult? Try these video lessons and learn fast
 
                
E ------------------------------------------------------------------------------------------------------------
B ------------------------------------------------------------------------------------------------------------
G -------------4-------------------6--------------------12----------------------7-----------------------------
D -------------4-------------------7--------------------12----------------------7-----------------------------
A -------------2-------------------4--------------------10----------------------5-----------------------------
D ------------------------------------------------------12----------------------5-----------------------------
    I went to bed that night...


E ------------------------------------------------------------------------------------------------------------
B ------------------------------------------------------------------------------------------------------------
G -------4-----4-----4------6-----6-----6------7-----7-----7---7-----7-----7----------------------------------
D -------4-4-4-4-4-4-4-4----6-6-6-6-6-6-6-6----7-7-7-7-7-7-7-7-7-7-7-7-7-7-7----------------------------------
A -------2-2-2-2-2-2-2-2----4-4-4-4-4-4-4-4----5-5-5-5-5-5-5-5-5-5-5-5-5-5-5----------------------------------
D ---------------------------------------------5-5-5-5-5-5-5-5-5-5-5-5-5-5-5----------------------------------
  P.M    . . . . . . . .    . . . . . . . .    . . . . . . . . . . . . . . .
     But I know that you know...

E ------------------------------------------------------------------------------------------------------------
B ------------------------------------------------------------------------------------------------------------
G -------------(4-------------------6--------------------12----------------------7)~~~-~~~~~~~----------------
D -------------(4-------------------7--------------------12----------------------7)~~~~~~~~~~~----------------
A -------------(2-------------------4--------------------10----------------------5)~~~-~~~~~~~----------------
D -------------(-----------------------------------------12----------------------5)~~~~~~~~~~~----------------
    Nothing's what .....                                           
    


E -----------------------------------------------------------------------------------------------------------
B -------------------------------------0-0-0-0-0-0-0-0-0-0-0-0-0-0-0-0-0-------------------------------------
G -7-7-7-7-7-7-7-7---7-7-7-7-7-7-7-7---4-4-4-6-6-6-7-7-7-6-6-6-6-6-6-6-6-------------------------------------
D -0-0-0-0-0-0-0-0---0-0-0-0-0-0-0-0---4-4-4-6-6-6-7-7-7-6-6-6-6-6-6-6-6---5-5-5-5-5-5-5-5---0-0-0-0-0-0-0-0-
A -0-0-0-0-0-0-0-0---0-0-0-0-0-0-0-0---2-2-2-4-4-4-5-5-5-4-4-4-4-4-4-4-4---5-5-5-5-5-5-5-5---0-0-0-0-0-0-0-0-
D -0-0-0-0-0-0-0-0---0-0-0-0-0-0-0-0---------------------------------------5-5-5-5-5-5-5-5---0-0-0-0-0-0-0-0-

...And was it me?


E -----------------------------------------------------------------------------------------------------------
B --0-0-0-0-0-0-0-0-0-0-0-0-----------0-0-0-0-0-0-0-0-0-0-0-0-0-0-0-0-0-0-0-0-0-0-0-0-0-0-0-0-0-0-0-0--------
G --4-4-4-6-6-6-7-7-7-6-6-6-x-x-------4-4-4-4-6-6-6-6-7-7-7-7-7-7-7-7-7-7-7-7-7-7-7-7-7-7-7-7-7-7-7-7--------
D --4-4-4-6-6-6-7-7-7-6-6-6-x-x-------4-4-4-4-6-6-6-6-7-7-7-7-7-7-7-7-7-7-7-7-7-7-7-7-7-7-7-7-7-7-7-7--------
A --2-2-2-4-4-4-5-5-5-4-4-4-x-x-------2-2-2-2-4-4-4-4-5-5-5-5-5-5-5-5-5-5-5-5-5-5-5-5-5-5-5-5-5-5-5-5--------
D ----------------------------------------------------0-0-0-0-0-7-7-7-7-5-5-5-5-5-5-5-5-5-5-5-5-5-5-5--------
                              But I know that you know...            
Submit corrections


        Lets Talk About Your Hair  lessons Hard to play? Try these video lessons and learn fast Lets Talk About Your Hair  lessons
        
↑ Back to top | Tablatures and chords for acoustic guitar and electric guitar, ukulele, drums are parodies/interpretations of the original songs. You may use it for private study, scholarship, research or language learning purposes only