» » »

Have Mercy - Hell Tabs

Artists:  A B C D E F G H I J K L M N O P Q R S T U V W X Y Z # 

Hell Tabs

(ver. 1) Click to play this song!
Have Mercy
 Rating:
4.3/5 (6 votes)

 Hell  lessons Tabs too difficult? Try these video lessons and learn fast
 
                [Intro]
D |--------------------------|
A |--------------------------|
F#|---7------7-----7---------|
D |-----7------7-----7---7---|
A |------------------------5-|
D |-0------0-----9-----5-----|

 (After the first few times through, play these chords at the same time. Strummed once. Verse.)
D |---------------------------------|
A |---------------------------------|
F#|--------------------------------|
D |--11---------11-----7------------|
A |--9----------9------5------------|
D |--0----------9------5------------|

(Do that a few times, and on the last few play)
(Ps, that number still is eleven. Sorry if that confused you.)
D |-------------------------------------|
A |-------------------------------------|
F#|------------------------------------|
D |--111--111-----1111111--xx--7-77-5555|
A |--999--999-----9-9-9-9--xx--5-55-5555|
D |--000--000-----9-9-9-9--xx--5-55-5555|
    ???  ???     ? ? ? ?      ? ?? ????

(And then you proceed to chug those for the chorus)
(same chords, just faster and in the same timing)
D |---------------------------------|
A |---------------------------------|
F#|--------------------------------|
D |--1111111111117777---------------|
A |--9999999999995555---------------|
D |--0000000099995555---------------|

And now you've got the part that may or may not be wrong. If you have a correction, I'd adore it, but this is 
played as an outro.
(1's are still 11)
(/ - Slide up \ - Slide down)
D |-------------------------------------------------|
A |-------------------------------------------------|
F#|------------------------------------------------|
D |--7/999/111/141414141414----7/999\777\444444-----|
A |--5/777/999/121212121212----5/777\555\222000-----|
D |-------------------------------------------------|            
Submit corrections


        Hell  lessons Hard to play? Try these video lessons and learn fast Hell  lessons
        
↑ Back to top | Tablatures and chords for acoustic guitar and electric guitar, ukulele, drums are parodies/interpretations of the original songs. You may use it for private study, scholarship, research or language learning purposes only