» » »

Have Mercy - Coexist Bass

Artists:  A B C D E F G H I J K L M N O P Q R S T U V W X Y Z # 

Coexist Bass

(ver. 1) Click to play this song!
Have Mercy
 Rating:
4.3/5 (20 votes)
                [Intro]

G|---------------------------------------------------------------------------|
D|---------------------------------------------------------------------------|
A|---------------0--0-0-0-0-0-0----------------------0--0-0-0-0-0-0----------|
D|-0--0-0-0-0-0------------------4-4--0--0-0-0-0-0-0-------------------------|

[Verse]

G|-----------------------------------------------------------------------------|
D|-----------------------------------------------------------------------------|
A|-4---4-4---0--0-0----------------------4----4-4---0----0-0-------------------|
D|--------------------4---4-4---2---2-2------------------------4---4-4--2--2---|

G|-----------------------------------------------------------------------------|
D|-----------------------------------------------------------------------------|
A|-4---4-4---0--0-0----------------------4----4-4---0----0-0-------------------|
D|--------------------4---4-4---2---2-2------------------------4---4-4--2--2---|

G|---------------------------------------------------------------------------|
D|---------------------------------------------------------------------------|
A|---------------------------------------------------------------------------|
D|--0-0-0-0-0-0-0-0-0---2-2-2-2--2-2-2-2-------------------------------------|


[Chorus]

G|---------------------------------------------------------------------------|
D|---------------------------------------------------------------------------|
A|------------------------------------------------------2-2-2-2-2-2-2-2-2----|
D|-4-4-4-4-4-4-4-4-4--2-2-2-2-2-2-2-2--0-0-0-0-0-0-0-0-----------------------|

G|---------------------------------------------------------------------------|
D|---------------------------------------------------------------------------|
A|------------------------------------------------------2-2-2-2-2-2-2-2-2----|
D|-4-4-4-4-4-4-4-4-4--2-2-2-2-2-2-2-2--0-0-0-0-0-0-0-0-----------------------|

[Interlude]

G|---------------------------------------------------------------------------|
D|---------------------------------------------------------------------------|
A|---------------0--0-0-0-0-0-0----------------------0--0-0-0-0-0-0----------|
D|-0--0-0-0-0-0------------------4-4--0--0-0-0-0-0-0-------------------------|

[Verse 2]

G|---------------------------------------------------------------------------|
D|---------------------------------------------------------------------------|
A|---------------------------------------------------------------------------|
D|-0---0-0--2--2-2---4--4-4---2---2-2---0---0-0--2---2-2---4--4-4---2--2-2---|

G|---------------------------------------------------------------------------|
D|---------------------------------------------------------------------------|
A|---------------------------------------------------------------------------|
D|-0-----------------------------2-------------------------------------------|

[Chorus]

G|---------------------------------------------------------------------------|
D|---------------------------------------------------------------------------|
A|------------------------------------------------------2-2-2-2-2-2-2-2-2----|
D|-4-4-4-4-4-4-4-4-4--2-2-2-2-2-2-2-2--0-0-0-0-0-0-0-0-----------------------|

G|---------------------------------------------------------------------------|
D|---------------------------------------------------------------------------|
A|------------------------------------------------------2-2-2-2-2-2-2-2-2----|
D|-4-4-4-4-4-4-4-4-4--2-2-2-2-2-2-2-2--0-0-0-0-0-0-0-0-----------------------|

[Bridge]

G|---------------------------------------------------------------------------|
D|---------------------------------------------------------------------------|
A|-4-4-4-4-4-4-4-4-----------------------------------------------------------|
D|-----------------2-2-2-2-2-2-2-2-4-4-4-4-4-4-4-4-2-2-2-2-2-2-2-2-----------|

G|---------------------------------------------------------------------------|
D|---------------------------------------------------------------------------|
A|-4-4-4-4-4-4-4-4-7-7-7-7-7-7-7-7-9-9-9-9-9-9-9-9-10-10-12------------------|
D|---------------------------------------------------------------------------|

[Chorus]

G|---------------------------------------------------------------------------|
D|---------------------------------------------------------------------------|
A|------------------------------------------------------2-2-2-2-2-2-2-2-2----|
D|-4-4-4-4-4-4-4-4-4--2-2-2-2-2-2-2-2--0-0-0-0-0-0-0-0-----------------------|

G|---------------------------------------------------------------------------|
D|---------------------------------------------------------------------------|
A|------------------------------------------------------2-2-2-2-2-2-2-2-2----|
D|-4-4-4-4-4-4-4-4-4--2-2-2-2-2-2-2-2--0-0-0-0-0-0-0-0-----------------------|
            
Submit corrections

↑ Back to top | Tablatures and chords for acoustic guitar and electric guitar, ukulele, drums are parodies/interpretations of the original songs. You may use it for private study, scholarship, research or language learning purposes only