Home » H » Have Heart »

Have Heart - Song Of Shame Tabs

Artists:  A B C D E F G H I J K L M N O P Q R S T U V W X Y Z # 

Song Of Shame Tabs

(ver. 1) Click to play this song!
Have Heart
e|----------------------------|
B|----------------------------|
G|----------------------------|
D|--9-7-12-7-10-9~~~~---------| x3 Don't play open E chord 
A|--7-5-10-5-8--7~~~~--2~~~~--|    on 3rd time
E|---------------------0~~~~--|


e|--------------------------------------------|
B|--------------------------------------------|
G|--------------------------------------------|
D|--9----9----9----9----9----9-9-7-12-7-10----| x2  
A|--77777777777777777777777777-7-5-10-5-8-----|    
E|--------------------------------------------|
     .... .... .... .... ....


e|----------------------------------------|
B|----------------------------------------|       \
G|----------------------------------------|        \
D|--99-999-999-9-7-9-7-55-555-555-5-------|         \
A|--77-777-777-7-5-7-5-33-333-333-3-55-5--|          \
E|----------------------------------33-3--|           \
                                                       \ x2 End on 7/5 on 2nd time
                                                       /
e|----------------------------------------------|     /
B|----------------------------------------------|    /
G|----------------------------------------------|   /
D|--99-999-999-9-7-9-7-1010-101010-9-77-77-12~--|  /
A|--77-777-777-7-5-7-5-8-8--8-8-8--7-55-55-10~--| /
E|----------------------------------------------|

e|------------------------------------------------------------|
B|------------------------------------------------------------|
G|------------------------------------------------------------|
D|--2~~~~~~~~--2~~~~~~~~-------------7-10---------------------|
A|--2~~~~~~~~--2~~~~~~~~--2222222222-5-8--2-----------------2-|
E|--0~~~~~~~~--0~~~~~~~~--0000000000------0-----------------0-|
                          ..........

e|-----------------------------------------------|
B|-----------------------------------------------|
G|-----------------------------------------------|
D|--2~~~------------5-----2~~~------------7--10--|
A|--2~~~-2222222222-3-5-4-2~~~-2222222222-5--8---|
E|--0~~~-0000000000---3-2-0~~~-0000000000--------|


e|-----------------------------------------------|
B|-----------------------------------------------|
G|-----------------------------------------------|
D|--2~~~------------5-----2~~~------------7--10--|
A|--2~~~-2222222222-3-5-4-2~~~-2222222222-5--8---|
E|--0~~~-0000000000---3-2-0~~~-0000000000--------|
         ..........            ..........


e|-----------------------|
B|-----------------------|
G|-----------------------|
D|--2~~~~~~~~-2~~~~~~~~--|
A|--2~~~~~~~~-2~~~~~~~~--|
E|--0~~~~~~~~-0~~~~~~~~--|
         


e|--------------------------------------------------------|
B|--------------------------------------------------------|
G|--------------------------------------------------------|
D|-9-7-12-7-10-9----9----9----9----9----9-9-7-12-7-10-9---| 
A|-7-5-10-5-8--77777777777777777777777777-7-5-10-5-8--7---|    
E|--------------------------------------------------------|
                .... .... .... .... ....            
Submit corrections

↑ Back to top | Tablatures and chords for acoustic guitar and electric guitar, ukulele, drums are parodies/interpretations of the original songs. You may use it for private study, scholarship, research or language learning purposes only