» » »

Hate Plow - Tnt Tabs

Artists:  A B C D E F G H I J K L M N O P Q R S T U V W X Y Z # 

Tnt Tabs

(ver. 1) Click to play this song!
Hate Plow
 Rating:
4/5 (4 votes)
    Tnt lessons Tabs too difficult? Try these video lessons and learn fast
                E--------------------------
B-------------------------
G--------------------------
D-1-1-4-6-4-6-4-------------------------
A-1-1-4-6-4-6-4--------------------
E-1-1-4-6-4-6-4------------------  

E---------------------------
B------------------------
G--------------------------
D-1-1-4-6-4-6-4---------------------
A-1-1-4-6-4-6-4------------------
E-1-1-4-6-4-6-4--------------------- 

E------------------------------
B------------------------------
G------------------------------
D-1-4-6-6-4-1----------------------------
A-1-4-6-6-4-1---------------------
E-1-4-6-6-4-1--------------------------
            
Submit corrections

↑ Back to top | Tablatures and chords for acoustic guitar and electric guitar, ukulele, drums are parodies/interpretations of the original songs. You may use it for private study, scholarship, research or language learning purposes only