Home » H » Hate Plow »

Hate Plow - Brain Stew Tabs

Artists:  A B C D E F G H I J K L M N O P Q R S T U V W X Y Z # 

Brain Stew Tabs

(ver. 1) Click to play this song!
Hate Plow
E----------------------------
B-----------------------------
G---------------------------------
D-6-6----4-4----3-3----2-2----1-1   Repeat multiple times 
A-6-6----4-4----3-3----2-2----1-1
E-6-6----4-4----3-3----2-2----1-1

E----------------------------
B---------------------------
G----------------------------
D-6-6----4-4----3-3----2-2----1-1  Repeat multiple times 
A-6-6----4-4----3-3----2-2----1-1 
E-6-6----4-4----3-3----2-2----1-1

E--------------------------------
B----------------------------------
G-----------------------------------
D-6-6----4-4----3-3----2-2----1-1
A-6-6----4-4----3-3----2-2----1-1
E-6-6----4-4----3-3----2-2----1-1
            
Submit corrections

↑ Back to top | Tablatures and chords for acoustic guitar and electric guitar, ukulele, drums are parodies/interpretations of the original songs. You may use it for private study, scholarship, research or language learning purposes only