» » »

Haste The Day - Janet's Planet Tabs

Artists:  A B C D E F G H I J K L M N O P Q R S T U V W X Y Z # 

Janet's Planet Tabs

(ver. 3) Click to play this song!
Haste The Day
 Rating:
4/5 (4 votes)
                -------------------------------------------------------------------------------
                             Janet's Planet - Haste The Day
-------------------------------------------------------------------------------

Tuning: Drop C

This song repeats over and over with progressivley more distorsion as the song wears on. 
rate my first tab!

D|---------------------------------------------------------------------------|
A|---------------------------------------------------------------------------|
F|5/7-7-7-7-7-7-7-7-7-7-7-7-7-7/10-10-10-10-10-10-10-10-10-10-10-10-10-------|
C|0---0-0-0-0-0-0-0-0-0-0-0-0-0-----0--0--0--0--0--0--0--0--0--0--0--0-------|
G|---------------------------------------------------------------------------|
C|---------------------------------------------------------------------------|
P.M.  . . . . . . . . . . . . .     .  .  .  .  .  .  .  .  .  .  .  .
D|---------------------------------------------------------------------------|
A|---------------------------------------------------------------------------|
F|7-7-7-7-7-7-7-7-5-5-5-5-5-5-5-5--------------------------------------------|
C|8-8-8-8-8-8-8-8-7-7-7-7-7-7-7-7--------------------------------------------|
G|---------------------------------------------------------------------------|
C|---------------------------------------------------------------------------|
    . . . . . . . . . . . . . . .


| /  slide up
| \  slide down
| h  hammer-on
| p  pull-off
| ~  vibrato
| +  harmonic
| x  Mute note
===============================================================================
            
Submit corrections

↑ Back to top | Tablatures and chords for acoustic guitar and electric guitar, ukulele, drums are parodies/interpretations of the original songs. You may use it for private study, scholarship, research or language learning purposes only