» » »

Harvey Danger - Flagpole Sitta Bass

Artists:  A B C D E F G H I J K L M N O P Q R S T U V W X Y Z # 

Flagpole Sitta Bass

(ver. 3) Click to play this song!
Harvey Danger
 Rating:
4.2/5 (5 votes)
                Flagpole Sitta

This song is very easy, and has 3 main parts.

Main Riff
G----------------------------------------------------------------------------------------------
D---0-0-0-0-0-0-0-0---------------------------------------------0-0-0-0-0-0-5-4--------
A------------------------0-0-0-0-0-0-0-0--3-3-3-3-3-3-3-3------------------------------
E-----------------------------------------------------------------------------------------------

Chorus
G----------------------------------------------------------------------------------------------
D---0-0-0-0-0-0-0-0--2-2-2-2-2-2-2-2-----------------------0-0-0-0-0-0-5-4----------
A---------------------------------------------3-3-3-3-3-3-3-3-------------------------------
E-----------------------------------------------------------------------------------------------

Bridge
G-----------------------------------------------------------------------------------------------
D-----------------------------------------------------------------------------------------------
A---3-3-3-3-3-3-3-3--------------------------------------------3-3-3-3-3-3-3-3----------
E------------------------3-3-3-3-3-3-3-3--1-1-1-1-1-1-1-1-------------------------------

That's about it. Just throw in a few slides when you change to each
part, and at the end of the bridge and the end of the song, add an extra
eight notes to each part. Listen to the song to get the timing and
order.

Questions, comments, complaints, or bad jokes, mail to:


"KEEP PUMPIN DAT BASS!"
            
Submit corrections

↑ Back to top | Tablatures and chords for acoustic guitar and electric guitar, ukulele, drums are parodies/interpretations of the original songs. You may use it for private study, scholarship, research or language learning purposes only