» » »

Harvest Barclay James - Epicure Tabs

Artists:  A B C D E F G H I J K L M N O P Q R S T U V W X Y Z # 

Epicure Tabs

(ver. 1) Click to play this song!
Harvest Barclay James
 Rating:
4.3/5 (13 votes)

 Epicure  lessons Tabs too difficult? Try these video lessons and learn fast
 
                [Intro]

Guitar 1 plays, gets faster on last four repetitions:
Cb|------------------------------------------------------| x8
Gb|------------------------------------------------------| 
E |------------------------------------------------------| 
B |------------------------------------------------------|
Fb|-2--3---------------------2---------------------------| 
Cb|-0--1---------------------0---------------------------|              
                             .

Guitar 2 plays this when guitar 1 starts to get faster:
Cb|------------------------------------------------------| x4
Gb|------------------------------------------------------| 
E |------------------------------------------------------| 
B |-------------8--10------------------------------------|
Fb|-------------7--8-------------------------------------| 
Cb|------------------------------------------------------|
               

[Pre-Verse]

Guitar 1 enters after guitar 2 plays riff once through:
Cb|------------------------------------------------------| x2
Gb|------------------------------------------------------| 
E |------------------------------------------------------| 
B |------------------------------------------------------| 
Fb|-2-2-2--2--2-2----3-3-3--3--3-3-----------------------| 
Cb|-0-0-0--0--0-0----1-1-1--1--1-1-----------------------| 
    . . .  .  . .    . . .  .  . .

Guitar 2 plays:
Cb|------------------------------------------------------| x4
Gb|------------------------------------------------------| 
E |------------------------------------------------------| 
B |---9----------------10-------------10-----------------| 
Fb|-10--10-9-x4-------10--10-9-x3---10--10-9-10----------| 
Cb|------------------------------------------------------|


[Verse]

Guitar 1 plays:
Cb|------------------------------------------------------| x8
Gb|------------------------------------------------------| 
E |------------------------------------------------------| 
B |------------------------------------------------------| 
Fb|-2-2-2--2--2-2----3-3-3--3--3-3-----------------------| 
Cb|-0-0-0--0--0-0----1-1-1--1--1-1-----------------------|
    . . .  .  . .    . . .  .  . .


Guitar 2 begins to play this at the 3rd repetition of guitar 1 :
Cb|------------------------------------------------------| x4
Gb|------------------------------------------------------| 
E |---------10-9---7-----------10-9-12-10----------------| 
B |-------7------7-----------7---------------------------| 
Fb|------------------------------------------------------| 
Cb|------------------------------------------------------| 
 

Guitar 1  plays :                     
Cb|------------------------------------------------------| x8 
Gb|------------------------------------------------------|             
E |----------10-9--7------------10-9-12-10---------------|           
B |--------7-----7-------------7-------------------------|           
Fb|------------------------------------------------------| 
Cb|-0-0-0-------------0-0-0------------------------------|
    . . .             . . .

Guitar 2 plays :
Cb|------------------------------------------------------| x4
Gb|------------------------------------------------------|             
E |------------------------------------------------------|           
B |---------0-3-2-0-2--------0-3-2-5-3-------------------|           
Fb|------------------------------------------------------| 
Cb|-0-0-0--------------0-0-0-----------------------------|
    . . .              . . .

Guitar 2 then switches to playing this riff:
Cb|------------------------------------------------------| x4 
Gb|------------------------------------------------------|             
E |------------------------------------------------------|           
B |-----3------------------3-----------------------------|           
Fb|-2-2-1--------------2-2-1-----------------------------| 
Cb|-0-0----------------0-0-------------------------------|
    . .                . .


[Chorus]

Guitars 1 & 2 plays:
Cb|------------------------------------------------------| x1
Gb|------------------------------------------------------| 
E |------------------------------------------------------| 
B |------------------------------------------------------| 
Fb|-2-2-2---2-2-2---2-2-2---2-2-2------------------------| 
Cb|-0-0-0---0-0-0---0-0-0---0-0-0------------------------|
    . . .   . . .   . . .   . . .
 
   
[Breakdown]

Guitar 2 plays:
Cb|---------16--16--16--16-------------------------------| x8
Gb|----------X---X---X---X-------------------------------| 
E |---------12--12--12--12-------------------------------| 
B |------------------------------------------------------| 
Fb|-2-2-2------------------------------------------------| 
Cb|-0-0-0------------------------------------------------|
    . . .

Guitar 1 plays this at the same time:
Cb|------------------------------------------------------| x8
Gb|------------------------------------------------------|             
E |------------------------------------------------------|           
B |------------------------------------------------------|           
Fb|-2-2-2------------------------------------------------| 
Cb|-0-0-0------------------------------------------------|
    . . .

Guitar 1 then begins to play this after the fifth time:
Cb|------------------------------------------------------| x4
Gb|------------------------------------------------------|   
E |------4/---12--12--12---------------------------------| 
B |------x/----X---X---X---------------------------------| 
Fb|-2-2--2/---10--10--10---------------------------------| 
Cb|-0-0--------------------------------------------------|
    . . 

Guitar 2 play continue this in the same time:
Cb|---------16--16--16--16-------------------------------| x4
Gb|----------X---X---X---X-------------------------------| 
E |---------12--12--12--12-------------------------------| 
B |------------------------------------------------------| 
Fb|-2-2-2------------------------------------------------| 
Cb|-0-0-0------------------------------------------------|
    . . .


[Discord section]

Guitar 1 plays this for two bars and then pauses for bar before resuming:
Cb|------------------------------------------------------| x2
Gb|-13-13-13-13-13-13-13/--12----------------------------| 
E |--X--X--X--X--X--X--X/---X----------------------------| 
B |-10-10-10-10-10-10-10/---9----------------------------| 
Fb|------------------------------------------------------| 
Cb|------------------------------------------------------|


Guitar 2 plays this:
Cb|------------------------------------------------------| x4
Gb|------------------------------------------------------| 
E |------------------------------------------------------| 
B |------------------------------------------------------| 
Fb|-2-2-2--2--2-2----3-3-3--3--3-3-----------------------| 
Cb|-0-0-0--0--0-0----1-1-1--1--1-1-----------------------| 
    . . .  .  . .    . . .  .  . .


[Post-Breakdown]

Guitar 1 & 2 plays: 
Cb|------------------------------------------------------| x1
Gb|------------------------------------------------------| 
E |------------------------------------------------------| 
B |------------------------------------------------------| 
Fb|-2-2-2-2-2-2-2-2-2-2-2-2-2-2-2-2-2-2-2-2-2------------| 
Cb|-0-0-0-0-0-0-0-0-0-0-0-0-0-0-0-0-0-0-0-0-0------------|
    . . . . . . . . . . . . . . . . . . . . . 


[Verse 2]

Guitar 1  plays:                     
Cb|------------------------------------------------------| x8 
Gb|------------------------------------------------------|             
E |----------10-9--7------------10-9-12-10---------------|           
B |--------7-----7-------------7-------------------------|           
Fb|------------------------------------------------------| 
Cb|-0-0-0-------------0-0-0------------------------------|
    . . .             . . .

Guitar 2 plays:
Cb|------------------------------------------------------| x4 
Gb|------------------------------------------------------|             
E |------------------------------------------------------|           
B |---------0-3-2-0-2--------0-3-2-5-3-------------------|           
Fb|------------------------------------------------------| 
Cb|-0-0-0--------------0-0-0-----------------------------|
    . . .              . . .

Guitar 2 then plays: 
Cb|------------------------------------------------------| x4 
Gb|------------------------------------------------------|             
E |------------------------------------------------------|           
B |-----3------------------3-----------------------------|           
Fb|-2-2-1--------------2-2-1-----------------------------| 
Cb|-0-0----------------0-0-------------------------------|
    . .                . .


[Outro]

Guitar 1 & 2 plays:
Cb|------------------------------------------------------|
Gb|------------------------------------------------------| 
E |------------------------------------------------------| 
B |------------------------------------------------------| 
Fb|-2-2-2---2-2-2---2-2-2---2-2-2------------------------| 
Cb|-0-0-0---0-0-0---0-0-0---0-0-0------------------------|
    . . .   . . .   . . .   . . .            
Submit corrections


        Epicure  lessons Hard to play? Try these video lessons and learn fast Epicure  lessons
        
↑ Back to top | Tablatures and chords for acoustic guitar and electric guitar, ukulele, drums are parodies/interpretations of the original songs. You may use it for private study, scholarship, research or language learning purposes only