Home » H » Harry Styles »

Harry Styles - Love Of My Life Bass

Artists:  A B C D E F G H I J K L M N O P Q R S T U V W X Y Z # 

Love Of My Life Bass

(ver. 1) Click to play this song!
Harry Styles
[Intro]
No bass
 
[Verse 1 and chorus]
G|--------4--|-----------|-----------|------------|
D|5----4-----|--------5--|-----------|------4-----|x5
A|-----------|7----5-----|3----2--5--|7--------5--|
E|-----------|-----------|-----------|------------|
 
[Post-chorus and verse 2]
No bass
 
[Chorus]
G|--------4--|-----------|-----------|------------|
D|5----4-----|--------5--|-----------|------4-----|x2
A|-----------|7----5-----|3----2--5--|7--------5--|
E|-----------|-----------|-----------|------------|
 
[Outro]
G|----------|----------|----------|-------------|---------|
D|----------|----------|----------|-------------|---------|
A|-----2----|3----5----|-----2----|-------------|---------|
E|3---------|----------|3---------|-------3--2--|3--------|
            
Submit corrections

↑ Back to top | Tablatures and chords for acoustic guitar and electric guitar, ukulele, drums are parodies/interpretations of the original songs. You may use it for private study, scholarship, research or language learning purposes only