» » »

Harry Belafonte - Jump In The Line Tabs

Artists:  A B C D E F G H I J K L M N O P Q R S T U V W X Y Z # 

Jump In The Line Tabs

(ver. 3) Click to play this song!
Harry Belafonte
 Rating:
2.3/5 (30 votes)

 Jump In The Line lessons Tabs too difficult? Try these video lessons and learn fast
 
                
E|-----8-----------|
B|---10-8-11-11-8-8|
G|-10------------9-|
D|-----------------|
A|-----------------|
E|-----------------|


E|--------------------|
B|------10----11------|
G|-10-10----12--12-9--|
D|--------12--------10|
A|--------------------|
E|--------------------|


E|--------------------|
B|------10----11------|
G|-10-10----12--12-9--|
D|--------12--------10|
A|--------------------|
E|--------------------|


E|--------------------|
B|------10----11------|
G|-10-10----12--12-9--|
D|--------12--------10|
A|--------------------|
E|--------------------|
            
Submit corrections


        Jump In The Line lessons Hard to play? Try these video lessons and learn fast Jump In The Line lessons
        
↑ Back to top | Tablatures and chords for acoustic guitar and electric guitar, ukulele, drums are parodies/interpretations of the original songs. You may use it for private study, scholarship, research or language learning purposes only