Home » H » Harlem »

Harlem - Number One Tabs

Artists:  A B C D E F G H I J K L M N O P Q R S T U V W X Y Z # 

Number One Tabs

(ver. 1) Click to play this song!
Harlem
 Rating:
4.4/5 (5 votes)
                [Verse]

e|---------------00000000000-------------------------------------------------|
B|---------------03/5555br50-------------------------------------------------|
G|----44---------------------------------------------------------------------|
D|-55-00-55-45---------------------------------------------------------------|
A|-55----55-55---------------------------------------------------------------|
E|---------------------------------------------------------------------------|


[Chorus] 

this is just C, D, B, D except the last bit goes

e|--/555555-3-5--------------------------------------------------------------|
B|--/666666-5-5--------------------------------------------------------------|
G|--/666666-5-6-7p5----------------------------------------------------------|
D|--/666666-5-7-----7--------------------------------------------------------|
A|--/555555-3-7--------------------------------------------------------------|
E|------------5--------------------------------------------------------------|            
Submit corrections

↑ Back to top | Tablatures and chords for acoustic guitar and electric guitar, ukulele, drums are parodies/interpretations of the original songs. You may use it for private study, scholarship, research or language learning purposes only