Home » H » Happysad »

Happysad - Sami Sobie Tabs

Artists:  A B C D E F G H I J K L M N O P Q R S T U V W X Y Z # 

Sami Sobie Tabs

(ver. 1) Click to play this song!
Happysad
 Rating:
4.1/5 (31 vote)
                Wstęp i I zwrotka

e|------------------------------------------|
B|------------------------------5p6p5-3-1---|
G|----2-2-2-2-2-0-2-5---------5-------------|
D|---------------------2-2/5----------------|
A|------------------------------------------|
E|------------------------------------------|

e|--------------------------------------12--|
B|------------------------------5p6p5-------|
G|----2-2-2-2-2-0-2-5---------5-------------|
D|---------------------2-2/5----------------|
A|------------------------------------------|
E|------------------------------------------|

e|------------------------------------------|
B|---------------------6-6-5-3-3-1----------|
G|----2-2-2-2-2-0-2-5-----------------------|
D|------------------------------------------|
A|------------------------------------------|
E|------------------------------------------|

e|---------------------0p1p0---------------------|
B|-----------------------------------------------|
G|----7-5~--7-5-5-4~-----------7-5~--7-5-5-4~----|
D|-----------------------------------------------|
A|-----------------------------------------------|
E|-----------------------------------------------|



e|--------------------------------------------3---------|
B|-------------------------------------5-3-5-----5-3-5--|
G|---2-2-0-2-2-2-2-2-0-2-2-4-4-4-4----------------------|
D|----------------------------------5-------------------|
A|------------------------------------------------------|
E|------------------------------------------------------|

e|----7p8p7-----------8-7-6-----------------------------|
B|-----------5-3-5-----------2-2-2-2-2-2-2-4-4-4-4-4-4--|
G|------------------------------------------------------|
D|------------------------------------------------------|
A|------------------------------------------------------|
E|------------------------------------------------------|

e|------------------------------------------|
B|------------------------------5p6p5-3-1---|
G|----2-2-2-2-2-0-2-5---------5-------------|
D|---------------------2-2/5----------------|
A|------------------------------------------|
E|------------------------------------------|

e|--------------------------------------12--|
B|------------------------------5p6p5-------|
G|----2-2-2-2-2-0-2-5---------5-------------|
D|---------------------2-2/5----------------|
A|------------------------------------------|
E|------------------------------------------|

e|------------------------------------------|
B|---------------------6-6-5-3-3-1----------|
G|----2-2-2-2-2-0-2-5-----------------------|
D|------------------------------------------|
A|------------------------------------------|
E|------------------------------------------|

II zwrotka

e|------------------------------------------|
B|------------------------------5p6p5-3-1---|
G|----2-2-2-2-2-0-2-5---------5-------------|
D|---------------------2-2/5----------------|
A|------------------------------------------|
E|------------------------------------------|

e|--------------------------------------12--|
B|------------------------------5p6p5-------|
G|----2-2-2-2-2-0-2-5---------5-------------|
D|---------------------2-2/5----------------|
A|------------------------------------------|
E|------------------------------------------|

e|------------------------------------------|
B|---------------------6-6-5-3-3-1----------|
G|----2-2-2-2-2-0-2-5-----------------------|
D|------------------------------------------|
A|------------------------------------------|
E|------------------------------------------|

e|---------------------0p1p0---------------------|
B|-----------------------------------------------|
G|----7-5~--7-5-5-4~-----------7-5~--7-5-5-4~----|
D|-----------------------------------------------|
A|-----------------------------------------------|
E|-----------------------------------------------|

Refren

e|--------------------------------------------3---------|
B|-------------------------------------5-3-5-----5-3-5--|
G|---2-2-0-2-2-2-2-2-0-2-2-4-4-4-4----------------------|
D|----------------------------------5-------------------|
A|------------------------------------------------------|
E|------------------------------------------------------|

e|----7p8p7-----------8-7-6-----------------------------|
B|-----------5-3-5-----------2-2-2-2-2-2-2-4-4-4-4-4-4--|
G|------------------------------------------------------|
D|------------------------------------------------------|
A|------------------------------------------------------|
E|------------------------------------------------------|

e|------------------------------------------|
B|------------------------------5p6p5-3-1---|
G|----2-2-2-2-2-0-2-5---------5-------------|
D|---------------------2-2/5----------------|
A|------------------------------------------|
E|------------------------------------------|

e|--------------------------------------12--|
B|------------------------------5p6p5-------|
G|----2-2-2-2-2-0-2-5---------5-------------|
D|---------------------2-2/5----------------|
A|------------------------------------------|
E|------------------------------------------|

e|------------------------------------------|
B|---------------------6-6-5-3-3-1----------|
G|----2-2-2-2-2-0-2-5-----------------------|
D|------------------------------------------|
A|------------------------------------------|
E|------------------------------------------|

Solówka

e|---------------------------------------7-3-1-0-|
B|-----------------------------------------------|
G|----2-0p2-5-5-5--------2-0p2-5-5-5-------------|
D|------------------2----------------------------|
A|-----------------------------------------------|
E|-----------------------------------------------|

e|-----------------------------------------------|
B|-----------------------------------------------|
G|----2-0p2-5-5-5--------2-0p2-5-5-5-------------|
D|------------------2-----------------2----------|
A|-----------------------------------------------|
E|-----------------------------------------------|

e|-----------------------------------------------|
B|-----------6-5----6-5----------3-1-0-3-1-------|
G|----2-2--------5---------4-4-------------------|
D|-----------------------------------------------|
A|-----------------------------------------------|
E|-----------------------------------------------|

e|-----------------------------------------------|
B|-----------6-5----6-5----------6-5-------------|
G|--2/5----------5-------------------5-7-5-------|
D|-------------------------3-3-------------------|
A|-----------------------------------------------|
E|-----------------------------------------------|

e|-----------------------------------------------|
B|-----------6-5----6-5----------3-1-0-3-1-------|
G|----2-2--------5---------4-4-------------------|
D|-----------------------------------------------|
A|-----------------------------------------------|
E|-----------------------------------------------|

e|-----------------------------------------------|
B|-----------6-5----6-5----------6-5-------------|
G|--2/5----------5-------------------5-7-5-------|
D|-------------------------3-3-------------------|
A|-----------------------------------------------|
E|-----------------------------------------------|


Solo właściwe

e|-----------------------------------------------|
B|--------------6-5--------------5-6-5-3---------|
G|-----4~5~--5--------4---4-2-4-----------5------|
D|-----------------------------------------------|
A|-----------------------------------------------|
E|-----------------------------------------------|

e|--------------------13-12-------------10----------15~--13-12------10-10--12/5--|
B|-------3-5/13--13---------12-10-12-------13-12---------------13----------------|
G|----5--------------------------------------------------------------------------|
D|-------------------------------------------------------------------------------|
A|-------------------------------------------------------------------------------|
E|-------------------------------------------------------------------------------|

            
Submit corrections

↑ Back to top | Tablatures and chords for acoustic guitar and electric guitar, ukulele, drums are parodies/interpretations of the original songs. You may use it for private study, scholarship, research or language learning purposes only