Home » H » Happysad »

Happysad - Noc Jak Każda Inna Tabs

Artists:  A B C D E F G H I J K L M N O P Q R S T U V W X Y Z # 

Noc Jak Każda Inna Tabs

(ver. 1) Click to play this song!
Happysad
 Rating:
4.3/5 (25 votes)
                Intro:
e|----------------------------------------------|
B|----------------------------------------------|
G|----------------------------------------------|
D|-5-5-----4-4-4-4--9-9--2--3-3--5-5------------|  x3
A|-3-3--5--2-2-2-2--7-7--2--3-3--5-5------------|
E|------3---------------------------------------|

 Końcówka intro:
e|---------------------------------------------|
B|---------------------------------------------|
G|---------------------------------------------|
D|-14-14-12-9-9h10p9h10p9h10p9h10p9------------|
A|---------------------------------------------|
E|---------------------------------------------|

 Zwrotka:
e|----------------------------------------------|
B|----------------------------------------------|
G|----------------------------------------------|
D|-5---7---9--9-9-9-----------------------------| x4
A|-3---5---7--7-7-7-----------------------------|
E|----------------------------------------------|

 Przejście (0:55)
e|----------------------------------------------|
B|----------------------------------------------|
G|----------------------------------------------|
D|-5--7---9--9-9--5-5--7-7----------------------| x4
A|-3--5---7--7-7--3-3--5-5----------------------|
E|----------------------------------------------|

 Solo od 2:52
e|--------------------------------------------------------------|
B|--------------------------------------------------------------|
G|-12-12-11-12-11----------------12-12-11-12-14-----------------|
D|----------------14-14-14-14-14----------------14-14-14-14-14--|
A|--------------------------------------------------------------|
E|--------------------------------------------------------------|

e|--------------------------------------------------------------|
B|--------------------------------------------------------------|
G|-12-12-11-12-11----------------14-14-12-12-11-----------------|
D|----------------14-14-14-14-14----------------14-14-14-14-14--|
A|--------------------------------------------------------------|
E|--------------------------------------------------------------|

 Solo na końcu:
e|----------------------------------------------------------|
B|----------------------------------------------------------|
G|----------------------------------------------------------|
D|----14-14-12-14-14-10-10-12-12-12-12-10-------------------|  x4
A|----------------------------------------14-14-12-12-14----|
E|----------------------------------------------------------|

            
Submit corrections

↑ Back to top | Tablatures and chords for acoustic guitar and electric guitar, ukulele, drums are parodies/interpretations of the original songs. You may use it for private study, scholarship, research or language learning purposes only