Home » H » Happysad »

Happysad - Mów Mi Dobrze Tabs

Artists:  A B C D E F G H I J K L M N O P Q R S T U V W X Y Z # 

Mów Mi Dobrze Tabs

(ver. 1) Click to play this song!
Happysad
Intro / 1st & 2nd Verse - Guitar 1
    a              d              C              G
e|--------------|--------------|--------------|--------------|--------------|
B|--------------|--------------|--------------|--------------|--------------|
G|--5-----5-----|-10-----10----|--9-----9-----|--7-----7-----|--------------|
D|--7-----7-----|-12-----12----|-10----10-----|--9-----9-----|--------------|
A|--------------|--------------|--------------|--------------|--------------|
E|--------------|--------------|--------------|--------------|------0-3-4-5-|


 Riff A
 Guitar 1
e|--------------------|--------------------|----------------------|-------------------|
B|--------------------|--------------------|----------------------|-------------------|
G|--5-5--4-4--2-2-----|-5-5--4-4---2-2-----|-7-7--5-5--4--4-5-4---|-7-7-5----9-9-9-7--|
D|----------------2-2-|----------------2-3-|----------------------|-------------------|
A|--------------------|--------------------|----------------------|-------------------|
E|--------------------|--------------------|----------------------|-------------------|


 Riff A
 Guitar 2
e|--------------------|--------------------|--------------------|-----------------------|
B|--------------------|--------------------|--------------------|-----------------------|
G|--------------------|--------------------|-7-7-7-7--7-7--777--|----------5-5---5-5/7--|
D|-7-7-7-7--7-7--777--|-7-7-7-7--7-7--777--|-7-7-7-7--7-7--777--|-5-5-5-5---------------|
A|-7-7-7-7--7-7--777--|-7-7-7-7--7-7--777--|-5-5-5-5--5-5--555--|-5-5-5-5---------------|
E|-5-5-5-5--5-5--555--|-5-5-5-5--5-5--555--|--------------------|-3-3-3-3---------------|


 2nd Verse Guitar 2
e|--------------------------------|-----------------------------------|--------------|
B|--------------------------------|-----------------------------------|--------------|
G|--------------------------------|-----------------/12-10------------|--------------|
D|--/7~------/10-9-10-------------|--/7~------/10-9-----------/10--9~-|--------------|
A|--------------------8~---/7-5~--|-----------------------------------|--------------|
E|--------------------------------|-----------------------------------|------0-3-4-5-|

 3rd Verse
    a                              d             G
e|--5--------------------------|--10--------------------------|
B|--5--------------------------|--10------------12------------|
G|--5--------------------------|--10------------12------------|
D|--7--------------------------|--12------------12------------|
A|--7--------------------------|--12------------10------------|
E|--5--------------------------|--10--------------------------|


 Bridge
e|-----------------|-------------------------|-----------------|------------------------|
B|-----------------|-------------------------|-----------------|------------------------|
G|-/7-5-4-5--2--2--|--/7-5-4-5--2--2/4-4/5-5-|-/9-9-7---7-7-7--|-/10-9-7--/10--9b10r9~--|
D|-----------------|-------------------------|-----------------|------------------------|
A|-----------------|-------------------------|-----------------|------------------------|
E|-----------------|-------------------------|-----------------|------------------------|


e|---------------------------------|---------------------------------|
B|---------8--6--5b(6)r(5)~--------|---------8--6--5-----------------|
G|----5----------------------------|----5------------5~---5-5/7/9~---|
D|--7---7--------------------------|--7---7--------------------------|
A|---------------------------------|---------------------------------|
E|---------------------------------|---------------------------------|


e|----------------------------------|--------------------------------------|
B|-----------13--11--10b(11)r(10)~--|-----------13--11--10-----------------|
G|-----10---------------------------|-----10---------------10~---10-10/9~--|
D|--12----12------------------------|--12----12----------------------------|
A|----------------------------------|--------------------------------------|
E|----------------------------------|--------------------------------------|


e|-----0-----0-----------------8------7-----------10-------0----------|
B|----0---------0----------------10-----10-------10-----------6-------|
G|---5-------------5----------------9------9----10---------------7----|
D|--7-----------------7------------------------12---------------------|
A|-0--------------------0---------------------12----------------------|
E|--------------------------------------------------------------------|


e|-----------------|-----------------|-------------------------|-----------------|
B|-----------------|-----------------|-------------------------|-----------------|
G|-----------------|-----------------|-------------------------|-----------------|
D|-7-7-7-7-7-7-7-7-|-7-7-7-7-7-7-7-7-|-12-12-12-12-12-12-12-12-|-9-9-9-9-9-9-9-9-|
A|-----------------|-----------------|-------------------------|-----------------|
E|-----------------|-----------------|-------------------------|-----------------|


e|-----------------|-----------------|-------------------------|-----------------|
B|-----------------|-----------------|-------------------------|-----------------|
G|-----------------|-----------------|-------------------------|-----------------|
D|-7-7-7-7-7-7-7-7-|-7-7-7-7-7-7-7-7-|-12-12-12-12-12-12-12-12-|-9---------------|
A|-----------------|-----------------|-------------------------|-----------------|
E|-----------------|-----------------|-------------------------|-----------------|

            
Submit corrections

↑ Back to top | Tablatures and chords for acoustic guitar and electric guitar, ukulele, drums are parodies/interpretations of the original songs. You may use it for private study, scholarship, research or language learning purposes only