Home » H » Happysad »

Happysad - Lęki I Fobie Tabs

Artists:  A B C D E F G H I J K L M N O P Q R S T U V W X Y Z # 

Lęki I Fobie Tabs

(ver. 1) Click to play this song!
Happysad
 Rating:
4.3/5 (13 votes)
                [Intro]
e|-------------------|-------------------|-------------------|---------------------|
B|-10-(10)-(10)-(10)-|-------------------|-------------------|---------------------|
G|-------------------|--9--(9)--(9)--(9)-|-------------------|---------------------|
D|-10-(10)-(10)-(10)-|-------------------|-12-(12)-(12)-(12)-|-(12)-(12)-(12)-(12)-|
A|-------------------|-10-(10)-(10)-(10)-|-11-(11)-(11)-(11)-|-(11)-(11)-(11)-(11)-|
E|-------------------|-------------------|-------------------|---------------------|


e|-------------------|-------------------|---------------|-----------------|
B|-10-(10)-(10)-(10)-|-------------------|-9-(9)-(9)-(9)-|-(9)-(9)-(9)-(9)-|
G|-------------------|--9--(9)--(9)--(9)-|---------------|-----------------|
D|-10-(10)-(10)-(10)-|-------------------|-9-(9)-(9)-(9)-|-(9)-(9)-(9)-(9)-|
A|-------------------|-10-(10)-(10)-(10)-|---------------|-----------------|
E|-------------------|-------------------|---------------|-----------------|

[Verse 1]
   a                                   d
e|-8-(8)-(8)-(8)-|-------------------|-10-(10)-(10)-(10)-|-(10)-(10)-(10)-(10)-|
B|---------------|-10-(10)-(10)-(10)-|-------------------|---------------------|
G|-9-(9)-(9)-(9)-|-------------------|-10-(10)-(10)-(10)-|-(10)-(10)-(10)-(10)-|
D|---------------|-10-(10)-(10)-(10)-|-------------------|---------------------|
A|---------------|-------------------|-------------------|---------------------|
E|---------------|-------------------|-------------------|---------------------|

   G                                       C                   E
e|-15-(15)-(15)-(15)-|-13-(13)-(13)-(13)-|-12-(12)-(12)-(12)-|-------------------|
B|-12-(12)-(12)-(12)-|-------------------|-------------------|-------------------|
G|-------------------|-14-(14)-(14)-(14)-|-12-(12)-(12)-(12)-|-13-(13)-(13)-(13)-|
D|-------------------|-------------------|-------------------|-------------------|
A|-------------------|-------------------|-------------------|-14-(14)-(14)-(14)-|
E|-------------------|-------------------|-------------------|-------------------|


   a                 d                     G                           C            E
e|-------0--------0--------1--------1------------3--3-3--------3--3-3--------3-1-0--0----|
B|-------1--------1--------3--------3------------3--3-3--------3--3-3---------------0----|
G|-2--2--------2-----2--2--------2-----2------0-------------0-------------0---------1----|
D|-2-----------------0--------0----------0------------------------------------------2----|
A|-0--------0----------------------------------------------------------3------------2----|
E|-----------------------------------------3-------------3--------------------------0----|

[Chorus] x2
   F                    C                  E
e|-------------------|-------------------|-------------------|-------------------|
B|-10-(10)-(10)-(10)-|-------------------|-------------------|-------------------|
G|-------------------|--9--(9)--(9)--(9)-|-------------------|-13-(13)-(13)-(13)-|
D|-10-(10)-(10)-(10)-|-------------------|-12-(12)-(12)-(12)-|-------------------|
A|-------------------|-10-(10)-(10)-(10)-|-11-(11)-(11)-(11)-|-14-(14)-(14)-(14)-|
E|-------------------|-------------------|-------------------|-------------------|

[Verse 2]
   a                                       d
e|-------------------|-------------------|-10-(10)-(10)-(10)-|-12p10--12p10--|
B|-------------------|-10-(10)-(10)-(10)-|-------------------|---------------|
G|--9--(9)--(9)--(9)-|-------------------|-10-(10)-(10)-(10)-|---------------|
D|-10-(10)-(10)-(10)-|-10-(10)-(10)-(10)-|-------------------|---------------|
A|-------------------|-------------------|-------------------|---------------|
E|-------------------|-------------------|-------------------|---------------|

   G                                       C                   E
e|-15-(15)-(15)-(15)-|-13-(13)-(13)-(13)-|-12-(12)-(12)-(12)-|-------------------|
B|-12-(12)-(12)-(12)-|-------------------|-------------------|-------------------|
G|-------------------|-14-(14)-(14)-(14)-|-12-(12)-(12)-(12)-|-13-(13)-(13)-(13)-|
D|-------------------|-------------------|-------------------|-------------------|
A|-------------------|-------------------|-------------------|-14-(14)-(14)-(14)-|
E|-------------------|-------------------|-------------------|-------------------|

   E
e|---------------|---------------------------------------------------|
B|---------------|-12b13r12b13r12b13r12b13r12b13r12b13r12~-----------|
G|---------------|---------------------------------------------------|
D|---------------|---------------------------------------------------|
A|---------------|---------------------------------------------------|
E|---------------|---------------------------------------------------|

[Chorus]
   F                   C                   E                                 x3
e|-------------------|-------------------|-------------------|-----------------|
B|-10-(10)-(10)-(10)-|-------------------|-------------------|---------12-(12)-|
G|-------------------|--9--(9)--(9)--(9)-|-------------------|-13-(13)---------|
D|-10-(10)-(10)-(10)-|-------------------|-12-(12)-(12)-(12)-|---------12-(12)-|
A|-------------------|-10-(10)-(10)-(10)-|-11-(11)-(11)-(11)-|-14-(14)---------|
E|-------------------|-------------------|-------------------|-----------------|


e|-------------------|-------------------|-------------------|---------------------|
B|-10-(10)-(10)-(10)-|-------------------|-------------------|---------------------|
G|-------------------|--9--(9)--(9)--(9)-|-------------------|---------------------|
D|-10-(10)-(10)-(10)-|-------------------|-12-(12)-(12)-(12)-|-(12)-(12)-(12)-(12)-|
A|-------------------|-10-(10)-(10)-(10)-|-11-(11)-(11)-(11)-|-(11)-(11)-(11)-(11)-|
E|-------------------|-------------------|-------------------|---------------------|

[Verse 3]
   a                                   d
e|-8-(8)-(8)-(8)-|-8-(8)-(8)-(8)-|-10-(10)-(10)-(10)-|-12p10--12p10--|
B|------------=--|---------------|-------------------|---------------|
G|-9-(9)-(9)-(9)-|-9-(9)-(9)-(9)-|-10-(10)-(10)-(10)-|---------------|
D|---------------|---------------|-------------------|---------------|
A|---------------|---------------|-------------------|---------------|
E|---------------|---------------|-------------------|---------------|

   G                                       C                   E
e|-15-(15)-(15)-(15)-|-13-(13)-(13)-(13)-|-12-(12)-(12)-(12)-|-(12)-(12)-(12)-(12)-|
B|-12-(12)-(12)-(12)-|-------------------|-------------------|---------------------|
G|-------------------|-14-(14)-(14)-(14)-|-12-(12)-(12)-(12)-|-(12)-(12)-(12)-(12)-|
D|-------------------|-------------------|-------------------|---------------------|
A|-------------------|-------------------|-------------------|---------------------|
E|-------------------|-------------------|-------------------|---------------------|

   E
e|---------------|-12--------------|
B|---------------|-12b13-----------|
G|---------------|-----------------|
D|---------------|-----------------|
A|---------------|-----------------|
E|---------------|-----------------|

[Solo]
    F     G        a        C           F    E           a     d     C      E
e|--5-3----------------------------------------12--------5---8-7---------------12-----|
B|------6-5~--3--6-5~--3--6-5~--3/1------------12b13---------------8/5--/-\----12b13--|
G|----------------------------------2~--/-\-------------------------------------------|
D|------------------------------------------------------------------------------------|
A|------------------------------------------------------------------------------------|
E|------------------------------------------------------------------------------------|

    F     G        a        C           F    E
e|--5-3----------------------------------------12------------------------------------------|
B|------6-5~--3--6-5~--3--6-5~--3/1------------12b13----12b13r12b13r12----9b10r9-----------|
G|----------------------------------2~--/-\------------------------------------------------|
D|-----------------------------------------------------------------------------------------|
A|-----------------------------------------------------------------------------------------|
E|-----------------------------------------------------------------------------------15/---|

[Chorus]
   F                    C                  E
e|-------------------|-------------------|-------------------|-7-----------------|
B|-10----------------|--8----------------|-------------------|-9-----------------|
G|-10----------------|--9----------------|-9-----------------|-7-----------------|
D|-10----------------|-10----------------|-9-----------------|-9-----------------|
A|--8----------------|-10----------------|-7-----------------|-7-----------------|
E|-------------------|--8----------------|-------------------|-------------------|

            
Submit corrections

↑ Back to top | Tablatures and chords for acoustic guitar and electric guitar, ukulele, drums are parodies/interpretations of the original songs. You may use it for private study, scholarship, research or language learning purposes only