Home » H » Happysad »

Happysad - Kostuchna Tabs

Artists:  A B C D E F G H I J K L M N O P Q R S T U V W X Y Z # 

Kostuchna Tabs

(ver. 1) Click to play this song!
Happysad
 Rating:
4.3/5 (21 vote)
                   F   e   F   e
e|-1---0---1---0------------------------------------------------|
B|-1---0---1---0------------------------------------------------|
G|-2---0---2---0-------------------9---7\-----------9-7--5--4---|
D|-3---2---3---2------7--7--7--7--7---------7--7--7-------------|
A|-3---2---3---2------------------------------------------------|
E|-1---x---1---x------------------------------------------------|

   F   e   F  e      (Riff 4 times)                     
e|-1---0---1--0-------------------------------------------------|
B|-1---0---1--0-------------------------------------------------|
G|-2---0---2--0---------5--7--4-4-5~-------5--7--4-4-5~---------|
D|-3---2---3--2------3------------------3-----------------------|
A|-3---2---3--2-------------------------------------------------|
E|-1---x---1--x-------------------------------------------------|
                                        
e|---------------------------------------------------------------|
B|---------------------------------------------------------------|
G|--5-5--5-7--5-4~-----5-5--5-7--5-4~----------------------------|
D|-7-7-7--------------7-7-7--------------------------------------|
A|---------------------------------------------------------------|
E|---------------------------------------------------------------|

   C (8x)         |Em/B (8x)  (Całośc na "I już się modlę...")
e|-0-0-0-0-0-0-0-0|3-3-3-3-3-3-3-3-------------------------------|
B|-1-1-1-1-1-1-1-1|0-0-0-0-0-0-0-0-------------------------------|
G|-0-0-0-0-0-0-0-0|0-0-0-0-0-0-0-0---5-5--5-7--5-4~----5-5-7/9-9~|
D|-2-2-2-2-2-2-2-2|2-2-2-2-2-2-2-2--7-7-7-------------7-7--------|
A|-3-3-3-3-3-3-3-3|2-2-2-2-2-2-2-2-------------------------------|
E|-0-0-0-0-0-0-0-0|x-x-x-x-x-x-x-x-------------------------------|

   ("Bo mi brakuje ciepła...")    
e|---------------------------------------------------------------|
B|----C-8x----Em/B-8x---(Ponownie powyższy riff)-----------------|
G|---------------------------------------------------------------|
D|--------------------------Na "I tylko nie wiem..." refren:-----|
A|---------------------------------------------------------------|
E|---------------------------------------------------------------|

high C high Em/B       (Chwyty i riff gramy 2 razy)
e|-8--8----7-7--8--8----7----------------------------------------|
B|-8--8----8-8--8--8----8----------------------------------------|
G|-9--9----9-9--9--9----9-12(x3)--12-14--12--10-9(x3)-9-10-9-----|
D|-10-10---9-9--10-10---9-----------------------------------12-10~|
A|-10-10---7-7--10-10---7----------------------------------------|
E|-8--8----7-7--8--8----7----------------------------------------|

            
Submit corrections

↑ Back to top | Tablatures and chords for acoustic guitar and electric guitar, ukulele, drums are parodies/interpretations of the original songs. You may use it for private study, scholarship, research or language learning purposes only