Home » H » Happy Fits »

Happy Fits - Little Words Tabs

Artists:  A B C D E F G H I J K L M N O P Q R S T U V W X Y Z # 

Little Words Tabs

(ver. 1) Click to play this song!
Happy Fits
[Intro]
  Dm              F               C               Dm
e|--1---1---1---1---1---1---1---1---0---0---0---0---1---1---|
B|--3---3---3---3---1---1---1---1---1---1---1---1---3---3---|
G|--2---2---2---2---2---2-2-2---2---0---0---0---0---2---2---|
D|--------0-----------3-------3-------2-------2---0---------|
A|----0-------0---3---------------3-------3-----------0-----|
D|0-------------------------------------------------------0-|
 
[Chorus]
  Dm              F               C               Dm
e|--1---1---1---1---1---1---1---1---0---0---0---0---1---1---|
B|--3---3---3---3---1---1---1---1---1---1---1---1---3---3---|
G|--2---2---2---2---2---2-2-2---2---0---0---0---0---2---2---|
D|--------0-----------3-------3-------2-------2---0---------|
A|----0-------0---3---------------3-------3-----------0-----|
D|0-------------------------------------------------------0-|
 
Darling, darling, darling, let me sing to you
Let me sing to you, let me sing to you
 
[Verse 1]
  Dm              F               C               F
e|--1---1---1---1---1---1---1---1---0---0---0---0---1---1---1---1-|
B|--3---3---3---3---1---1---1---1---1---1---1---1---1---1---1---1-|
G|--2---2---2---2---2---2-2-2---2---0---0---0---0---2---2-2-2---2-|
D|--------0-----------3-------3-------2-------2---3-----------3---|
A|----0-------0---3---------------3-------3-----------3-----------|
D|0---------------------------------------------------------------|
 
Darling, darling, darling, let me shelter you
Lay you into all the homes that fear has made of me
 
  A               Dm
e|--0---0---0---0---1---1----|
B|--2---2---2---2---3---3----|
G|--2---2---2---2---2---2----|
D|----2-------2---0----------|
A|0-------0-----------0------|
D|------------------------0--|
 
How the shingles fall like dust beside your company
 
[Chorus]
 
  D               Gm              C
e|--2---2---2---2---3---3---3---3---0---0---0---0---|
B|--3---3---3---3---3---3---3---3---1---1---1---1---|
G|--2---2---2---2---3---3---3---3---0---0---0---0---|
D|--------0-----------5-------5-------2-------2-----|
A|----0-------0---5-------5---------------3-------3~|
D|0-------------------------------------------------|
 
Darling, darling, darling, let me sing to you
Let me sing to you, let me sing to you
 
[Interlude]
  Dm              F               C               Dm
e|--1---1---1---1---1---1---1---1---0---0---0---0---1---1---|
B|--3---3---3---3---1---1---1---1---1---1---1---1---3---3---|
G|--2---2---2---2---2---2-2-2---2---0---0---0---0---2---2---|
D|--------0-----------3-------3-------2-------2---0---------|
A|----0-------0---3---------------3-------3-----------0-----|
D|0-------------------------------------------------------0-|
 
[Verse 2]
  Dm              F               C               Bb      F       A       Dm
e|--1---1---1---1---1---1---1---1---0---0---0---0---1---1---1---1---0---0---1---1---|
B|--3---3---3---3---1---1---1---1---1---1---1---1---1---1---1---1---2---2---3---3---|
G|--2---2---2---2---2---2-2-2---2---0---0---0---0---3---3---2---2---2---2---2---2---|
D|--------0-----------3-------3-------2-------2-------3-------3-------2---0-------0-|
A|----0-------0---3---------------3-------3-------1-------3-------2-----------0-----|
D|0---------------------------------------------------------------------------------|
 
Darling, darling, darling, let me cherish you
Let me cherish you
Through this cold metal screen, it will just be you and me
  Bb      F       A
e|--1---1---1---1---0---0---0---0---|
B|--1---1---1---1---2---2---2---2---|
G|--3---3---2---2---2---2---2---2---|
D|----3-------3-------2-------2-----|
A|1-------3-------2-------2-------2~|
D|----------------------------------|
 
Let me dance with your eyes, it will just be for the night
 
[Chorus]
  D               Gm              C
e|--2---2---2---2---3---3---3---3---0---0---0---0---|
B|--3---3---3---3---3---3---3---3---1---1---1---1---|
G|--2---2---2---2---3---3---3---3---0---0---0---0---|
D|--------0-----------5-------5-------2-------2-----|
A|----0-------0---5-------5---------------3-------3~|
D|0-------------------------------------------------|
 
Darling, darling, darling, let me sing to you
Let me sing to you, let me sing to you
 
[Interlude]
  Dm              F               C               Dm
e|--1---1---1---1---1---1---1---1---0---0---0---0---1---1---|
B|--3---3---3---3---1---1---1---1---1---1---1---1---3---3---|
G|--2---2---2---2---2---2-2-2---2---0---0---0---0---2---2---|
D|--------0-----------3-------3-------2-------2---0---------|
A|----0-------0---3---------------3-------3-----------0-----|
D|0-------------------------------------------------------0-|
 
[Verse 3]
  Dm              F               C               Bb              F
e|--1---1---1---1---1---1---1---1---0---0---0---0---1---1---1---1---1---1---1---1-|
B|--3---3---3---3---1---1---1---1---1---1---1---1---1---1---1---1---1---1---1---1-|
G|--2---2---2---2---2---2-2-2---2---0---0---0---0---3---3---3---3---2---2-2-2---2-|
D|--------0-----------3-------3-------2-------2-------3-------3-------3-------3---|
A|----0-------0---3---------------3-------3-------1-------1-------3---------------|
D|0-------------------------------------------------------------------------------|
 
Darling, darling, darling, let me dream of you
Let me dream of you
Where I die in, die in, die in your arms
  A               Dm
e|--0---0---0---0---1---1---|
B|--2---2---2---2---3---3---|
G|--2---2---2---2---2---2---|
D|----2-------2---0---------|
A|0-------0-----------0-----|
D|------------------------0-|
 
Die in, die in, die in your arms
 
[Chorus]
  D               Gm              C
e|--2---2---2---2---3---3---3---3---0---0---0---0---|
B|--3---3---3---3---3---3---3---3---1---1---1---1---|
G|--2---2---2---2---3---3---3---3---0---0---0---0---|
D|--------0-----------5-------5-------2-------2-----|
A|----0-------0---5-------5---------------3-------3~|
D|0-------------------------------------------------|
 
Darling, darling, darling, let me sing to you
Let me sing to you, let me sing to you
 
[Bridge] (strummed)
Dm                                     F
Down fell the rain, though your little words often came
    C                                     Gm          A
And out of this dreary house you built by heart
Dm                                  F
Don't you despair, though my little words can't compare
     C                                     Gm         A
I'll always be here with you behind closed eyes
Dm                                F
Down fell the rain, though your little words often came
    C                                     Gm          A
And out of this dreary house you built my heart
Dm                                  F
Don't you despair, though my little words can't compare
            C                              Gm         A
I'll always be here with you behind closed eyes
 
[Interlude]
Dm F C Gm A*
 
[Outro]
  Dm              F               C               Dm
e|--1---1---1---1---1---1---1---1---0---0---0---0---1---1---|
B|--3---3---3---3---1---1---1---1---1---1---1---1---3---3---|
G|--2---2---2---2---2---2-2-2---2---0---0---0---0---2---2---|
D|--------0-----------3-------3-------2-------2---0---------|
A|----0-------0---3---------------3-------3-----------0-----|
D|0-------------------------------------------------------0-|
 
Darling, darling, darling, let me sing to you
Let me sing to you, let me sing to you
            
Submit corrections

↑ Back to top | Tablatures and chords for acoustic guitar and electric guitar, ukulele, drums are parodies/interpretations of the original songs. You may use it for private study, scholarship, research or language learning purposes only