» » »

Hanzel Und Gretyl - Blut! Zex! Fire! Tabs

Artists:  A B C D E F G H I J K L M N O P Q R S T U V W X Y Z # 

Blut! Zex! Fire! Tabs

(ver. 1) Click to play this song!
Hanzel Und Gretyl
 Rating:
4/5 (4 votes)
                -------------------------------------------------------------------------------
                             Hanzel und Gretyl - Blut! Zex! Fire!
-------------------------------------------------------------------------------

very simple song

Tuning:Drop C

Verse
D|-------------------------------------------------------------------------------------|
A|-------------------------------------------------------------------------------------|
F|-------------------------------------------------------------------------------------|
C|--xxxx--------------5----------------------------------------------------------------|
G|--xxxx-----x20-----------------------------------------------------------------------|
C|--xxxx-------------3-----------------------------------------------------------------|

Chorus
D|-------------------------------------------------------------------------------------|
A|-------------------------------------------------------------------------------------|
F|-------------------------------------------------------------------------------------|
C|---0---3--5---3---1-0----------------------------------------------------------------|
G|---0---3--5---3---1-0----------------------------------------------------------------|
C|---0---3--5---3---1-0----------------------------------------------------------------|

| /  slide up
| \  slide down
| h  hammer-on
| p  pull-off
| ~  vibrato
| +  harmonic
| x  Mute note
===============================================================================
            
Submit corrections

↑ Back to top | Tablatures and chords for acoustic guitar and electric guitar, ukulele, drums are parodies/interpretations of the original songs. You may use it for private study, scholarship, research or language learning purposes only